Log in

One click and you are in

Login with Facebook Login with Google

Why sign up and log in

Guitar Tabs Explorer
Taylor Swift bass tabs for Clean

Bass tabs

Intro:

G|---------------------------------------------------------------------------|
D|-2-2-2-2-2-2-2-2-----------------------------------------------------------|
A|-------------------2-2-2-2-2-2-2-2--/4-4-4-4-4-4-4-4--\0-0-0-0-0-0-0-0-----| x2
E|---------------------------------------------------------------------------|

Verse:

G|---------------------------------------------------------------------------|
D|-2-2-2-2-2-2-2-2-----------------------------------------------------------|
A|-------------------2-2-2-2-2-2-2-2--/4-4-4-4-4-4-4-4--\0-0-0-0-0-0-0-0-----| x2
E|---------------------------------------------------------------------------|


Pre-Chorus:

G|---------------------------------------------------------------------------|
D|---------------------------------------------------------------------------|
A|-2-2-2-2-2-2-2-2--0-0-0-0-0-0-0-0--2-2-2-2-2-2-2-2--0-0-0-0--0~------------|
E|---------------------------------------------------------------------------|


Chorus 1:

G|---------------------------------------------------------------------------|
D|-2-2-2-2-2-2-2-2-----------------------------------------------------------|
A|-------------------2-2-2-2-2-2-2-2--/4-4-4-4-4-4-4-4--\0-0-0-0-0-0-0-0-----| x2
E|---------------------------------------------------------------------------|


Post-Chorus:

G|---------------------------------------------------------------------------|
D|-2-2-2-2-2-2-2-2-2-2-2-2-2-2-2-2-------------------------------------------|
A|---------------------------------------------------------------------------|
E|---------------------------------------------------------------------------|


Verse:

G|---------------------------------------------------------------------------|
D|-2-2-2-2-2-2-2-2-----------------------------------------------------------|
A|-------------------2-2-2-2-2-2-2-2--/4-4-4-4-4-4-4-4--\0-0-0-0-0-0-0-0-----| x2
E|---------------------------------------------------------------------------|


Pre-Chorus:

G|---------------------------------------------------------------------------|
D|---------------------------------------------------------------------------|
A|-2-2-2-2-2-2-2-2--0-0-0-0-0-0-0-0--2-2-2-2-2-2-2-2--0-0-0-0--0~------------|
E|---------------------------------------------------------------------------|


Chorus 2:

G|---------------------------------------------------------------------------|
D|-2-2-2-2-2-2-2-2-----------------------------------------------------------|
A|-------------------2-2-2-2-2-2-2-2--/4-4-4-4-4-4-4-4--\0-0-0-0-0-0-0-0-----| x2
E|---------------------------------------------------------------------------|


Bridge:

(play the first two notes very softly)

G|-9~--21~-------------------------------------------------------------------|
D|----------2-2-2-2-2-2-2-2-2-2-2-2-2-2-2-2----------------------------------|
A|------------------------------------------4-4-4-4-4-4-4-4--0-0-0-0-0-0-0-0-|
E|---------------------------------------------------------------------------|


Final Chorus:

(very softly, let the last note ring)

G|---------------------------------------------------------------------------|
D|-2-2-2-2-2-2-2-2-----------------------------------------------------------|
A|-------------------2-2-2-2-2-2-2-2--/4-4-4-4-4-4-4-4--\0-0-0-0-0-0-0-0-----| x2
E|---------------------------------------------------------------------------|

(louder)
G|---------------------------------------------------------------------------|
D|-2-2-2-2-2-2-2-2-----------------------------------------------------------|
A|-------------------2-2-2-2-2-2-2-2--/4-4-4-4-4-4-4-4--\0-0-0-0-0-0-0-0-----| x2
E|---------------------------------------------------------------------------|


Outro:

(very gentle and quiet, barely audible)

G|---------------------------------------------------------------------------|
D|-2-2-2-2-2-2-2-2-----------------------------------------------------------|
A|-------------------2-2-2-2-2-2-2-2--/4-4-4-4-4-4-4-4--\0-0-0-0-0-0-0-0-----| x2
E|---------------------------------------------------------------------------|


************************************

| /  Slide up
| \  Slide down
| ~  Vibrato

Almost there ...

Sign in to get your own page with links to favourite songs and more. You are just one click away...

Login with Facebook Login with Google