Log in

One click and you are in

Login with Facebook Login with Google

Why sign up and log in

Guitar Tabs Explorer
Taylor Swift bass tabs for Champagne problems

Bass tabs with lyrics

Tuning: Standard (E A D G)


Key:     C Major
Intro:
*break 8 bars*


Verse 1:

*break*

 You booked the night train for a reason / So you could sit there in this hurt
 Bustling crowds or silent sleepers / You're not sure which is worse


Chorus:

*break*

 Because I dropped your hand while dancing / Left you out there standing
 Crestfallen on the landing / Champagne problems
 Your mom's ring in your pocket / My picture in your wallet
 Your heart was glass, I dropped it / Champagne problems


Interlude:

G|-17-17-17-17-17-17-17-|-17-17-17-17-17-17----|-17-17-17-17-17-17-17-|-17-17-17-------------|
D|-15-14-15-17-15-14-15-|-15-14-15-17-15-14----|-15-14-15-17-15-14-15-|-15-14-15-/17---------|
A|----------------------|-------------------17-|----------------------|----------------------|
E|----------------------|----------------------|----------------------|----------------------|


Verse 2:

 You told your family for a reason / You couldn't keep it in
 Your sister splashed out on the bottle / Now no one's celebrating

G|-----------|-0---------|-2---------|-----------|-----------|-2----/4---|-2---------|-----------|
D|-----------|-----------|-----------|-3---------|-----------|-----------|-----------|-3---------|
A|-3---------|-----------|-----------|-----------|-3---------|-----------|-----------|-----------|
E|-----------|-----------|-----------|-----------|-----------|-----------|-----------|-----------|


Chorus:

 Dom Pérignon, you brought it / No crowd of friends applauded
 Your hometown skeptics called it / Champagne problems
 You had a speech, you're speechless / Love slipped beyond your reaches
 And I couldn't give a reason / Champagne problems

G|-----------|-0---------|-2---------|-----------|-----------|-0---------|-2---------|-----------|
D|-----------|-----------|-----------|-3---------|-----------|---------2-|-----------|-3---------|
A|-3---------|-----------|-----------|-----------|-3---------|-----------|-----------|-----------|
E|-----------|-----------|-----------|-----------|-----------|-----------|-----------|-----------|


Interlude:

G|-----------|-0---------|-/2--------|-----------|-----------|-0---------|-2----5----|-----------|
D|-----------|-----------|-----------|-3-----3---|-----------|------2----|-----------|-3---------|
A|-3---------|-----------|-----------|-----3-----|-3---------|-----------|-----------|-----------|
E|-----------|-----------|-----------|-----------|-----------|-----------|-----------|-----------|


Bridge:

 Your Midas touch on the Chevy door / November flush and your flannel cure
 "This dorm was once a madhouse" / I made a joke, "Well, it's made for me"
 How evergreen, our group of friends / Don't think we'll say that word again
 And soon they'll have the nerve to deck the halls / That we once walked through
 One for the money, two for the show / I never was ready so I watch you go
 Sometimes you just don't know the answer / 'Til someone's on their knees and asks you
 "She would've made such a lovely bride / What a shame she's fucked in the head," they said
 But you'll find the real thing instead / She'll patch up your tapestry that I shred

G|-----------|-0---------|-2---------|-----------|-----------|-0---------|-2----0----|-----------|
D|-----------|-----------|-----------|-3------/5-|-----------|---------2-|-----------|-3-----3---|
A|-3---------|-----------|-----------|-----------|-3---------|-----------|-----------|-----3-----|
E|-----------|-----------|-----------|-----------|-----------|-----------|-----------|-----------|

G|-----------|-0---------|-----------|-----------|-----------|-0---------|-2---------|-----------|
D|-----------|-----------|-----------|---------3-|---------2-|-----------|-----------|-3---------|
A|-3-------3-|---------3-|-0------/3-|-----------|-3---------|-----------|-----------|-----------|
E|-----------|-----------|-----------|-1---------|-----------|-----------|-----------|-----------|


Chorus:

 And hold your hand while dancing / Never leave you standing
 Crestfallen on the landing / With champagne problems
 Your mom's ring in your pocket / Her picture in your wallet
 You won't remember all my / Champagne problems

G|-----------|-0---------|-2---------|-----------|-----------|-0---------|-2-------0-|-----------|
D|-----------|------2----|-----------|-3---------|-----------|-----------|-----------|-3---------|
A|-3---------|-----------|-----------|-----------|-3---------|-----------|-----------|-----------|
E|-----------|-----------|-----------|-----------|-----------|-----------|-----------|-----------|


Outro:

 You won't remember all my / Champagne problems

G|-----------|-0---------|-2---------|-----------|-----------|-0---------|-2----0----|-----------|
D|-----------|-----------|-----------|-3---------|-----------|-----------|-----------|-3---------|
A|-3---------|-----------|-----------|-----------|-3---------|-----------|-----------|-----------|
E|-----------|-----------|-----------|-----------|-----------|-----------|-----------|-----------|


************************************

| /  Slide up

************************************
ⓘ Bass guitar tab for 'Champagne Problems' by Taylor Swift, a female pop artist from Pennsylvania, USA. Taylor Swift was born in 1989. Taylor Swift is known for her energetic rock/pop music.

Almost there ...

Sign in to get your own page with links to favourite songs and more. You are just one click away...

Login with Facebook Login with Google