Log in

One click and you are in

Login with Facebook Login with Google

Why sign up and log in

Guitar Tabs Explorer
Taylor Swift bass tabs for Cardigan

Bass tabs

Tuning: Standard (E A D G)


Verse 1: 0:06: Vintage tee, brand new phone

G|---------------------------------------------------------------------------|
D|---------------------------------------------------------------------------|
A|------------------------------------1--------------------------------------|
E|--1------------------------------------------------------------------------|

G|---------------------------------------------------------------------------|
D|---------------------------------------------------------------------------|
A|------------------------------------1--------------------------------------|
E|--4------------------------------------------------------------------------|  x2

Chorus: 0:35: But I knew you

G|---------------------------------------------------------------------------|
D|---------------------------------------------------------------------------|
A|--6----------------------------------1-------------------------------------|
E|---------------------------------------------------------------------------|

G|---------------------------------------------------------------------------|
D|---------------------------------------------------------------------------|
A|-------------------------------------1-------------------------------------|
E|--4------------------------------------------------------------------------|


0:51: And when I felt like I was an old cardigan

G|---------------------------------------------------------------------------|
D|---------------------------------------------------------------------------|
A|-------------------------------------1-------------------------------------|
E|--1------------------------------------------------------------------------|

G|---------------------------------------------------------------------------|
D|---------------------------------------------------------------------------|
A|-------------------------------------1-------------------------------------|
E|--4------------------------------------------------------------------------| x2

1:20: But I knew you

G|---------------------------------------------------------------------------|
D|---------------------------------------------------------------------------|
A|--6----------------------------------1-------------------------------------|
E|---------------------------------------------------------------------------|

G|---------------------------------------------------------------------------|
D|---------------------------------------------------------------------------|
A|-------------------------------------1-------------------------------------|
E|--4------------------------------------------------------------------------|


Refrain: 1:35: And when I felt like I was an old cardigan

G|---------------------------------------------------------------------------|
D|---------------------------------------------------------------------------|
A|---------------------------------------------------------------------------|
E|--4----------------------------------1-------------------------------------|

G|---------------------------------------------------------------------------|
D|---------------------------------------------------------------------------|
A|--6------------------------------------------------------------------------|
E|-------------------------------------4-------------------------------------|  x2


1:50:

G|---------------------------------------------------------------------------|
D|---------------------------------------------------------------------------|
A|--------------------------------------3------------------------------------|
E|--4------------------------------------------------------------------------|

G|---------------------------------------------------------------------------|
D|---------------------------------------------------------------------------|
A|--1------------------------------------------------------------------------|
E|--------------------------------------4------------------------------------|   x2


Chorus: 2:19: Cause I knew you

G|---------------------------------------------------------------------------|
D|---------------------------------------------------------------------------|
A|--6-----------------------------------1------------------------------------|
E|---------------------------------------------------------------------------|

G|---------------------------------------------------------------------------|
D|---------------------------------------------------------------------------|
A|--------------------------------------1------------------------------------|
E|--4------------------------------------------------------------------------|   x4


Verse 3: 3:18: And I knew you'd come back to me

G|---------------------------------------------------------------------------|
D|---------------------------------------------------------------------------|
A|---------------------------------------1-----------------------------------|
E|--1------------------------------------------------------------------------|

G|---------------------------------------------------------------------------|
D|---------------------------------------------------------------------------|
A|---------------------------------------1-----------------------------------|
E|--4------------------------------------------------------------------------|


Refrain: 3:32: And when I felt like I was an old cardigan

G|---------------------------------------------------------------------------|
D|---------------------------------------------------------------------------|
A|---------------------------------------1-----------------------------------|
E|--4------------------------------------------------------------------------|

G|---------------------------------------------------------------------------|
D|---------------------------------------------------------------------------|
A|--6------------------------------------------------------------------------|
E|---------------------------------------4-----------------------------------|

Almost there ...

Sign in to get your own page with links to favourite songs and more. You are just one click away...

Login with Facebook Login with Google