Log in

One click and you are in

Login with Facebook Login with Google

Why sign up and log in

Guitar Tabs Explorer
Taylor Swift bass tabs for Blank space

Bass tabs

Tuning: Standard tuning

Difficulty: Beginner

Submitted by: Donna UK

NB! All notes are held for 2 measures (8 beats) except where noted

 1st Verse - Rest whole verse
G||------|------|------|------|
D||------|------|------|------|
A||------|------|------|------|
E||------|------|------|------|
B||------|------|------|------|
  Chorus
X2 Second time through last note held 6 beats
G||------|------|------|------|------|------|------|------|
D||------|------|------|------|------|------|------|------|
A||------|------|------|------|------|------|-1----|------|
E||-1----|------|------|------|-3----|------|------|------|
B||------|------|-3----|------|------|------|------|------|


  2nd verse-rest half verse come in at 1:53
G||------|------|------|------|------|------|------|------|------|------|------|
D||------|------|------|------|------|------|------|------|------|------|------|
A||------|------|------|------|------|------|------|------|-1----|------|-3----|
E||------|------|------|------|4\1---|------|------|------|------|------|------|
B||------|------|------|------|------|------|-3----|------|------|------|------|

 Chorus
X2 Second time through last note held 6 beats
G||------|------|------|------|------|------|------|------|
D||------|------|------|------|------|------|------|------|
A||------|------|------|------|------|------|-1----|------|
E||-1----|------|------|------|-3----|------|------|------|
B||------|------|-3----|------|------|------|------|------|

  Bridge - Rest all the through
G||------|------|------|------|------|------|
D||------|------|------|------|------|------|
A||------|------|------|------|------|------|
E||------|------|------|------|------|------|
B||------|------|------|------|------|------|

G||------|------|------|------|------|------|
D||------|------|------|------|------|------|
A||------|------|------|------|------|------|
E||------|------|------|------|------|------|
B||------|------|------|------|------|------|


 Chorus
X2 Second time through last note held 6 beats
G||------|------|------|------|------|------|------|------|
D||------|------|------|------|------|------|------|------|
A||------|------|------|------|------|------|-1----|------|
E||-1----|------|------|------|-3----|------|------|------|
B||------|------|-3----|------|------|------|------|------|

Blank Space bass tab

Taylor Swift bass tabs for Blank space Beginner level bass tab for Taylor Swif's mega hit "Blank Space". "Blank Space" is written by Taylor Swift with producers Max Martin and Shellback.

"Blank Space" was released as a single on November 10, 2014. Producer Shellback plays bass on "Blank Space".

Almost there ...

Sign in to get your own page with links to favourite songs and more. You are just one click away...

Login with Facebook Login with Google