Log in

One click and you are in

Login with Facebook Login with Google

Why sign up and log in

Guitar Tabs Explorer
Taylor Swift bass tabs for Betty

Bass tabs

Tuning: B Tuning (B E A D)


Intro -- No Bass:

G|----------------|----------------|----------------|----------------|
D|----------------|----------------|----------------|----------------|
A|----------------|----------------|----------------|----------------|
E|----------------|----------------|----------------|----------------|
B|----------------|----------------|----------------|----------------|
 1 + 2 + 3 + 4 + 1 + 2 + 3 + 4 + 1 + 2 + 3 + 4 + 1 + 2 + 3 + 4 +
Verse 1 -- Starts without bass:

G|----------------|----------------|----------------|----------------|
D|----------------|----------------|----------------|----------------|
A|----------------|----------------|----------------|----------------|
E|----------------|----------------|----------------|----------------|
B|----------------|----------------|----------------|----------------|
 1 + 2 + 3 + 4 + 1 + 2 + 3 + 4 + 1 + 2 + 3 + 4 + 1 + 2 + 3 + 4 +

         Listen for -> ...It's like I couldn't breathe
G|----------------|----------------|----------------|----------------|
D|----------------|----------------|----------------|----------------|
A|----------------|----------------|----------------|------------0-2-|
E|----------------|----------------|----------------|----------------|
B|----------------|----------------|----------------|----------------|
 1 + 2 + 3 + 4 + 1 + 2 + 3 + 4 + 1 + 2 + 3 + 4 + 1 + 2 + 3 + 4 +


Pre-Chorus:
  You heard the...
G|----------------|----------------|----------------|----------------|
D|----------------|----------------|----------------|----------------|
A|3-----3-2-----2-|0-----0---------|------------0---|----------------|
E|----------------|--------3-----3-|1---------------|3---------------|
B|----------------|----------------|----------------|----------------|
 1 + 2 + 3 + 4 + 1 + 2 + 3 + 4 + 1 + 2 + 3 + 4 + 1 + 2 + 3 + 4 +

G|----------------|----------------|----------------|----------------|-----------------|
D|----------------|----------------|----------------|----------------|-----------------|
A|0---------------|----------------|0---------------|----------------|-----------------|
E|--------3-------|------1---------|--------3-------|1-------1-1-1-1-|3---3-3-3--/15---|
B|----------------|1---------------|----------------|----------------|-----------------|
 1 + 2 + 3 + 4 + 1 + 2 + 3 + 4 + 1 + 2 + 3 + 4 + 1 + 2 + 3 + 4 + 1 + 2 + 3 + 4 +

Chorus:

G|----------------|----------------|----------------|----------------|
D|----------------|----------------|----------------|----------------|
A|3-----3-2-----2-|0-----0---------|--------0-----0-|------------0-2-|
E|----------------|--------3-----3-|1-----1---------|3---------3-----|
B|----------------|----------------|----------------|----------------|
 1 + 2 + 3 + 4 + 1 + 2 + 3 + 4 + 1 + 2 + 3 + 4 + 1 + 2 + 3 + 4 +

G|----------------|----------------|----------------|----------------|
D|----------------|----------------|----------------|----------------|
A|3-----3-2-----2-|0-----0---------|--------0-----0-|------------0-2-|
E|----------------|--------3-----3-|1-----1---------|3---3-----3-----|
B|----------------|----------------|----------------|----------------|
 1 + 2 + 3 + 4 + 1 + 2 + 3 + 4 + 1 + 2 + 3 + 4 + 1 + 2 + 3 + 4 +


Interlude:

G|----------------|----------------|----------------|----------------|
D|----------------|----------------|----------------|----------------|
A|3-------2-----2-|0-----0---------|----------------|----------------|
E|----------------|--------3-----3-|1-----1-1-------|3---------------|
B|----------------|----------------|----------------|----------------|
 1 + 2 + 3 + 4 + 1 + 2 + 3 + 4 + 1 + 2 + 3 + 4 + 1 + 2 + 3 + 4 +


Verse 2:

G|----------------|----------------|----------------|----------------|
D|----------------|----------------|----------------|----------------|
A|3-----3-2-----2-|0-----0---------|------------0---|------------0-2-|
E|----------------|--------3-----3-|1-------1-------|3-----3-3-------|
B|----------------|----------------|----------------|----------------|
 1 + 2 + 3 + 4 + 1 + 2 + 3 + 4 + 1 + 2 + 3 + 4 + 1 + 2 + 3 + 4 +

G|----------------|----------------|----------------|----------------|
D|----------------|----------------|----------------|----------------|
A|3-----3-2-----2-|0-----0---------|------------0---|------------0-2-|
E|----------------|--------3-----3-|1-------1-1-----|3---------3-----|
B|----------------|----------------|----------------|----------------|
 1 + 2 + 3 + 4 + 1 + 2 + 3 + 4 + 1 + 2 + 3 + 4 + 1 + 2 + 3 + 4 +


Pre-Chorus:

G|----------------|----------------|----------------|----------------|
D|----------------|----------------|----------------|----------------|
A|3-----3-2-----2-|0-----0---------|------------0---|----------------|
E|----------------|--------3-----3-|1------11-------|3------33-----3-|
B|----------------|----------------|----------------|----------------|
 1 + 2 + 3 + 4 + 1 + 2 + 3 + 4 + 1 + 2 + 3 + 4 + 1 + 2 + 3 + 4 +

G|----------------|----------------|----------------|----------------|-----------------|
D|----------------|----------------|----------------|----------------|-----------------|
A|0---------------|----------------|0---------------|----------------|-----------------|
E|--------3-------|------1---------|--------3-------|1-------1-1---1-|3-3-3-3-3--/15---|
B|----------------|1---------------|----------------|----------------|-----------------|
 1 + 2 + 3 + 4 + 1 + 2 + 3 + 4 + 1 + 2 + 3 + 4 + 1 + 2 + 3 + 4 + 1 + 2 + 3 + 4 +


Chorus:

G|----------------|----------------|----------------|----------------|
D|----------------|----------------|----------------|----------------|
A|3-----3-2-----2-|0-----0---------|--------0-----0-|------------0-2-|
E|----------------|--------3-----3-|1-----1---------|3-----3-3-3-----|
B|----------------|----------------|----------------|----------------|
 1 + 2 + 3 + 4 + 1 + 2 + 3 + 4 + 1 + 2 + 3 + 4 + 1 + 2 + 3 + 4 +

G|----------------|----------------|----------------|----------------|
D|----------------|----------------|----------------|----------------|
A|3-----3-2-----2-|0-----0---------|--------0-----0-|------------0-2-|
E|----------------|--------3-----3-|1-----1---------|3---3---3-3-----|
B|----------------|----------------|----------------|----------------|
 1 + 2 + 3 + 4 + 1 + 2 + 3 + 4 + 1 + 2 + 3 + 4 + 1 + 2 + 3 + 4 +


Interlude:

G|----------------|----------------|----------------|----------------|
D|----------------|----------------|----------------|----------------|
A|3-------2-----2-|0-----0---------|----------------|--------0-------|
E|----------------|--------3-----3-|1-----1-1-------|3---1-3---3-1-3-|
B|----------------|----------------|----------------|--3-------------|
 1 + 2 + 3 + 4 + 1 + 2 + 3 + 4 + 1 + 2 + 3 + 4 + 1 + 2 + 3 + 4 +


Bridge:

G|----------------|----------------|----------------|----------------|
D|----------------|----------------|----------------|----------------|
A|0-------0-0-0-0-|----------------|----------------|----------------|
E|----------------|3---3-3-3-3-3-3-|1----x1-1------x|3-3-3-3-3-3-3-3-|
B|----------------|----------------|----------------|----------------|
 1 + 2 + 3 + 4 + 1 + 2 + 3 + 4 + 1 + 2 + 3 + 4 + 1 + 2 + 3 + 4 +

G|----------------|----------------|----------------|----------------|
D|----------------|----------------|----------------|----------------|
A|0---0---0--00---|----------------|----------------|----------------|
E|----------------|3---3---3--33---|1---1---1--11---|3-3-3-3-3-3-3---|
B|----------------|----------------|----------------|----------------|
 1 + 2 + 3 + 4 + 1 + 2 + 3 + 4 + 1 + 2 + 3 + 4 + 1 + 2 + 3 + 4 +


Interlude:

G|----------------|----------------|----------------|----------------|
D|----------------|----------------|----------------|----------------|
A|3---3---2-----2-|0-----0-----0---|----------------|----------------|
E|----------------|--------3-----3-|1-----1-1-------|3-----0-1-3-1-3-|
B|----------------|----------------|----------------|--1-3-----------|
 1 + 2 + 3 + 4 + 1 + 2 + 3 + 4 + 1 + 2 + 3 + 4 + 1 + 2 + 3 + 4 +

G|----------------|----------------|------------2-4-|
D|----------------|----------------|----------------|
A|0---------------|----------------|----------------|
E|----------3---1-|----------------|4---------------|
B|----------------|----------------|----------------|
 1 + 2 + 3 + 4 + 1 + 2 + 3 + 4 + 1 + 2 + 3 + 4 +


Verse 3:

G|5-------4-------|2---------------|----------------|--------7-------|
D|----------------|--------5-------|3-------3-------|5---------------|
A|----------------|----------------|----------------|----------------|
E|----------------|----------------|----------------|----------------|
B|----------------|----------------|----------------|----------------|
 1 + 2 + 3 + 4 + 1 + 2 + 3 + 4 + 1 + 2 + 3 + 4 + 1 + 2 + 3 + 4 +

G|5-------4-------|2---------------|----------------|--7-----------0-|
D|----------------|--------5-------|3-------3-------|5---------------|
A|----------------|----------------|----------------|----------------|
E|----------------|----------------|----------------|----------------|
B|----------------|----------------|----------------|----------------|
 1 + 2 + 3 + 4 + 1 + 2 + 3 + 4 + 1 + 2 + 3 + 4 + 1 + 2 + 3 + 4 +


Prechorus:

G|2-------0-------|----------------|2-------0-------|----------------|7-7-7-7-7-7-7-5-|
D|----------------|------3---------|----------------|3---3-3-3---3---|----------------|
A|----------------|3---------------|----------------|----------------|----------------|
E|----------------|----------------|----------------|----------------|----------------|
B|----------------|----------------|----------------|----------------|----------------|
 1 + 2 + 3 + 4 + 1 + 2 + 3 + 4 + 1 + 2 + 3 + 4 + 1 + 2 + 3 + 4 +

G|----------------|----------------|----------------|----------------|
D|----------------|----------------|----------------|--------0---0-2-|
A|3-----3-2-----2-|0-----0---------|----------------|--0---0---3-----|
E|----------------|--------3-----3-|1-----1---------|3---3-----------|
B|----------------|----------------|--------1-------|----------------|
 1 + 2 + 3 + 4 + 1 + 2 + 3 + 4 + 1 + 2 + 3 + 4 + 1 + 2 + 3 + 4 +

G|----------------|----------------|----------------|----------------|
D|----------------|----------------|3-------2-------|------0-2-4-5-7-|
A|3-----3-2-----2-|0-----0-------3-|----------------|--0-2-----------|
E|----------------|--------3-------|--------------1-|3---------------|
B|----------------|----------------|----------------|----------------|
 1 + 2 + 3 + 4 + 1 + 2 + 3 + 4 + 1 + 2 + 3 + 4 + 1 + 2 + 3 + 4 +


Chorus:

G|----------------|----------------|----------------|----------------|
D|----------------|----------------|----------------|----------------|
A|5-----5-4-----4-|2-----2-0-----0-|----------------|--------0-0-2-4-|
E|----------------|----------------|3-----3-2-----2-|0-----0---------|
B|----------------|----------------|----------------|----------------|
 1 + 2 + 3 + 4 + 1 + 2 + 3 + 4 + 1 + 2 + 3 + 4 + 1 + 2 + 3 + 4 +

G|----------------|----------------|----------------|----------------|
D|----------------|--------------4-|5-----5-4-----4-|2-----2-------2-|
A|5-----5-4-----4-|2-----2-0-------|----------------|--------0-2-4---|
E|----------------|----------------|----------------|----------------|
B|----------------|----------------|----------------|----------------|
 1 + 2 + 3 + 4 + 1 + 2 + 3 + 4 + 1 + 2 + 3 + 4 + 1 + 2 + 3 + 4 +


Outro:

G|----------------|----------------|----------------|----------------|
D|----------------|--------------2-|----------------|--------------2-|
A|5---------0-----|------------4---|5---5-----0-----|--------0-2-4---|
E|--------------3-|----3---3-3-----|--------------3-|----------------|
B|----------------|----------------|----------------|----------------|
 1 + 2 + 3 + 4 + 1 + 2 + 3 + 4 + 1 + 2 + 3 + 4 + 1 + 2 + 3 + 4 +

G|----------------|----------------|----------------|----------------|
D|----------------|--------------2-|----------------|----------------|
A|5---5-----0-----|------------4---|5---------------|----------------|
E|--------------3-|3---3---3-3-----|----------2---3-|----------------|
B|----------------|----------------|----------------|----------------|
 1 + 2 + 3 + 4 + 1 + 2 + 3 + 4 + 1 + 2 + 3 + 4 + 1 + 2 + 3 + 4 +



Comments? Suggestions? Feel free to leave a comment below.
If there is a mistake, point it out and I will do my best to fix it! :)

************************************

| x  Dead note

************************************

Almost there ...

Sign in to get your own page with links to favourite songs and more. You are just one click away...

Login with Facebook Login with Google