Log in

One click and you are in

Login with Facebook Login with Google

Why sign up and log in

Guitar Tabs Explorer
Taylor Swift guitar tabs for Begin again

Guitar tabs with lyrics

Difficulty: Intermediate


Standard Tuning
No Capo
Intro:

 A chord diagramG+G
e|------------3--------------|------------3--------------|
b|------3-------3---3--------|------3-------3---3--------|
g|--0-----0-------0---0---0--|--0-----0-------0---0---0--|
A chord diagramD MajorD|----0-----0-----------0----|----0-----0-----------0----|
A chord diagramA augmentedA|---------------------------|---------------------------|
A chord diagramE MajorE|3-----------------3--------|3-----------------3--------|


Verse 1:

Took a deep breath in the mirror He didn't like it when I wore high heels
 A chord diagramG+G
e|------------3--------------|------------3--------------|
b|------3-------3---3--------|------3-------3---3--------|
g|--0-----0-------0---0---0--|--0-----0-------0---0---0--|
A chord diagramD MajorD|----0-----0-----------0----|----0-----0-----------0----|
A chord diagramA augmentedA|---------------------------|---------------------------|
A chord diagramE MajorE|3-----------------3--------|3-----------------3--------|

But I do
A chord diagramCadd9Cadd9
e|------------3--------------|------------3--------------|
b|------3-------3---3--------|------3-------3---3--------|
g|--0-----0-------0---0---0--|--0-----0-------0---0---0--|
A chord diagramD MajorD|----2-----2-----------2----|----2-----2-----------2----|
A chord diagramA augmentedA|3-----------------3--------|3-----------------3--------|
A chord diagramE MajorE|---------------------------|---------------------------|

Turned the lock and put my headphones on He always said he didn't get this song
 A chord diagramG+G
e|------------3--------------|------------3--------------|
b|------3-------3---3--------|------3-------3---3--------|
g|--0-----0-------0---0---0--|--0-----0-------0---0---0--|
A chord diagramD MajorD|----0-----0-----------0----|----0-----0-----------0----|
A chord diagramA augmentedA|---------------------------|---------------------------|
A chord diagramE MajorE|3-----------------3--------|3-----------------3--------|

But I do, I do
A chord diagramCadd9Cadd9
e|------------3--------------|------------3--------------|
b|------3-------3---3--------|------3-------3---3--------|
g|--0-----0-------0---0---0--|--0-----0-------0---0---0--|
A chord diagramD MajorD|----2-----2-----------2----|----2-----2-----------2----|
A chord diagramA augmentedA|3-----------------3--------|3-----------------3--------|
A chord diagramE MajorE|---------------------------|---------------------------|


Break:

 A chord diagramG+G
e|------------3--------------|------------3--------------|
b|------3-------3---3--------|------3-------3---3--------|
g|--0-----0-------0---0---0--|--0-----0-------0---0---0--|
A chord diagramD MajorD|----0-----0-----------0----|----0-----0-----------0----|
A chord diagramA augmentedA|---------------------------|---------------------------|
A chord diagramE MajorE|3-----------------3--------|3-----------------3--------|


Verse 2:

Walked in expecting you'd be late But you got here early and you stand and wave
 A chord diagramG+G
e|------------3--------------|------------3--------------|
b|------3-------3---3--------|------3-------3---3--------|
g|--0-----0-------0---0---0--|--0-----0-------0---0---0--|
A chord diagramD MajorD|----0-----0-----------0----|----0-----0-----------0----|
A chord diagramA augmentedA|---------------------------|---------------------------|
A chord diagramE MajorE|3-----------------3--------|3-----------------3--------|

I walk to you
A chord diagramCadd9Cadd9
e|------------3--------------|------------3--------------|
b|------3-------3---3--------|------3-------3---3--------|
g|--0-----0-------0---0---0--|--0-----0-------0---0---0--|
A chord diagramD MajorD|----2-----2-----------2----|----2-----2-----------2----|
A chord diagramA augmentedA|3-----------------3--------|3-----------------3--------|
A chord diagramE MajorE|---------------------------|---------------------------|

You pull my chair out and help me in And you don't know how nice that is
 A chord diagramG+G
e|------------3--------------|------------3--------------|
b|------3-------3---3--------|------3-------3---3--------|
g|--0-----0-------0---0---0--|--0-----0-------0---0---0--|
A chord diagramD MajorD|----0-----0-----------0----|----0-----0-----------0----|
A chord diagramA augmentedA|---------------------------|---------------------------|
A chord diagramE MajorE|3-----------------3--------|3-----------------3--------|

But I do
A chord diagramCadd9Cadd9
e|------------3--------------|------------3--------------|
b|------3-------3---3--------|------3-------3---3--------|
g|--0-----0-------0---0---0--|--0-----0-------0---0---0--|
A chord diagramD MajorD|----2-----2-----------2----|----2-----2-----------2----|
A chord diagramA augmentedA|3-----------------3--------|3-----------------3--------|
A chord diagramE MajorE|---------------------------|---------------------------|


Chorus:

And you throw your head back laughing like a
A chord diagramCadd9Cadd9
e|------------3--------------|
b|------3-------3---3--------|
g|--0-----0-------0---0---0--|
A chord diagramD MajorD|----2-----2-----------2----|
A chord diagramA augmentedA|3-----------------3--------|
A chord diagramE MajorE|---------------------------|

little kid
 A chord diagramD MajorD
e|------0-----3-----0------|
b|--3-----3-----3-----3----|
g|----2-----2-----2-----2--|
A chord diagramD MajorD|0------------------------|
A chord diagramA augmentedA|-------------------------|
A chord diagramE MajorE|-------------------------|

I think it's strange that you think I'm funny cause
 A chord diagramE minorEm
e|------------0--------------|
b|------0-------0---0--------|
g|--0-----0-------0---0---0--|
A chord diagramD MajorD|----2-----2-----------2----|
A chord diagramA augmentedA|2--------------------------|
A chord diagramE MajorE|---------------------------|

he never did
 A chord diagramG+G
e|------------3--------------|
b|------3-------3---3--------|
g|--0-----0-------0---0---0--|
A chord diagramD MajorD|----0-----0-----------0----|
A chord diagramA augmentedA|---------------------------|
A chord diagramE MajorE|3-----------------3--------|

I've been spending the last 8 months
A chord diagramCadd9Cadd9
e|------------3--------------|
b|------3-------3---3--------|
g|--0-----0-------0---0---0--|
A chord diagramD MajorD|----2-----2-----------2----|
A chord diagramA augmentedA|3-----------------3--------|
A chord diagramE MajorE|---------------------------|

Thinking all love ever does is
A chord diagramD MajorD
e|------0-----3-----0------|
b|--3-----3-----3-----3----|
g|----2-----2-----2-----2--|
A chord diagramD MajorD|0------------------------|
A chord diagramA augmentedA|-------------------------|
A chord diagramE MajorE|-------------------------|


break   and burn  and end
A chord diagramG+G          A chord diagramD MajorD         A chord diagramE minorEm
e|----3----|----2----|----0------------|
b|0--------|3-----3--|0-----0----------|
g|--0---0--|--2------|--0-----0--------|
A chord diagramD MajorD|---------|0--------|----------2------|
A chord diagramA augmentedA|---------|---------|------------2----|
A chord diagramE MajorE|3--------|---------|0-------------0--|

But on a Wednesday in a cafe, I watched it begin again
A chord diagramCadd9Cadd9                        A chord diagramD MajorD
e|------------3--------------|------0-----5--|
b|------3-------3---3--------|--3-----3------|
g|--0-----0-------0---0---0--|----2-----2----|
A chord diagramD MajorD|----2-----2-----------2----|0--------------|
A chord diagramA augmentedA|3-----------------3--------|---------------|
A chord diagramE MajorE|---------------------------|---------------|


Verse 3:

He said he never met one girl Who had as many James Taylor records as you
A chord diagramG+G
e|------------3--------------|------------3--------------|
b|------3-------3---3--------|------3-------3---3--------|
g|--0-----0-------0---0---0--|--0-----0-------0---0---0--|
A chord diagramD MajorD|----0-----0-----------0----|----0-----0-----------0----|
A chord diagramA augmentedA|---------------------------|---------------------------|
A chord diagramE MajorE|3-----------------3--------|3-----------------3--------|

But I do
A chord diagramCadd9Cadd9
e|------------3--------------|------------3--------------|
b|------3-------3---3--------|------3-------3---3--------|
g|--0-----0-------0---0---0--|--0-----0-------0---0---0--|
A chord diagramD MajorD|----2-----2-----------2----|----2-----2-----------2----|
A chord diagramA augmentedA|3-----------------3--------|3-----------------3--------|
A chord diagramE MajorE|---------------------------|---------------------------|

We tell stories and you don't know why I'm coming off a little shy
A chord diagramG+G
e|------------3--------------|------------3--------------|
b|------3-------3---3--------|------3-------3---3--------|
g|--0-----0-------0---0---0--|--0-----0-------0---0---0--|
A chord diagramD MajorD|----0-----0-----------0----|----0-----0-----------0----|
A chord diagramA augmentedA|---------------------------|---------------------------|
A chord diagramE MajorE|3-----------------3--------|3-----------------3--------|

But I do
A chord diagramCadd9Cadd9
e|------------3--------------|------------3--------------|
b|------3-------3---3--------|------3-------3---3--------|
g|--0-----0-------0---0---0--|--0-----0-------0---0---0--|
A chord diagramD MajorD|----2-----2-----------2----|----2-----2-----------2----|
A chord diagramA augmentedA|3-----------------3--------|3-----------------3--------|
A chord diagramE MajorE|---------------------------|---------------------------|


Chorus:

And you throw your head back laughing like a
A chord diagramCadd9Cadd9
e|------------3--------------|
b|------3-------3---3--------|
g|--0-----0-------0---0---0--|
A chord diagramD MajorD|----2-----2-----------2----|
A chord diagramA augmentedA|3-----------------3--------|
A chord diagramE MajorE|---------------------------|

little kid
 A chord diagramD MajorD
e|------0-----3-----0------|
b|--3-----3-----3-----3----|
g|----2-----2-----2-----2--|
A chord diagramD MajorD|0------------------------|
A chord diagramA augmentedA|-------------------------|
A chord diagramE MajorE|-------------------------|

I think it's strange that you think I'm funny cause
 A chord diagramE minorEm
e|------------0--------------|
b|------0-------0---0--------|
g|--0-----0-------0---0---0--|
A chord diagramD MajorD|----2-----2-----------2----|
A chord diagramA augmentedA|2--------------------------|
A chord diagramE MajorE|---------------------------|

he never did
 A chord diagramG+G
e|------------3--------------|
b|------3-------3---3--------|
g|--0-----0-------0---0---0--|
A chord diagramD MajorD|----0-----0-----------0----|
A chord diagramA augmentedA|---------------------------|
A chord diagramE MajorE|3-----------------3--------|

I've been spending the last 8 months
A chord diagramCadd9Cadd9
e|------------3--------------|
b|------3-------3---3--------|
g|--0-----0-------0---0---0--|
A chord diagramD MajorD|----2-----2-----------2----|
A chord diagramA augmentedA|3-----------------3--------|
A chord diagramE MajorE|---------------------------|

Thinking all love ever does is
A chord diagramD MajorD
e|------0-----3-----0------|
b|--3-----3-----3-----3----|
g|----2-----2-----2-----2--|
A chord diagramD MajorD|0------------------------|
A chord diagramA augmentedA|-------------------------|
A chord diagramE MajorE|-------------------------|


break   and burn  and end
A chord diagramG+G          A chord diagramD MajorD         A chord diagramE minorEm
e|----3----|----2----|----0------------|
b|0--------|3-----3--|0-----0----------|
g|--0---0--|--2------|--0-----0--------|
A chord diagramD MajorD|---------|0--------|----------2------|
A chord diagramA augmentedA|---------|---------|------------2----|
A chord diagramE MajorE|3--------|---------|0-------------0--|

But on a Wednesday in a cafe, I watched it begin again
A chord diagramCadd9Cadd9                        A chord diagramD MajorD
e|------------3--------------|------0-----5--|
b|------3-------3---3--------|--3-----3------|
g|--0-----0-------0---0---0--|----2-----2----|
A chord diagramD MajorD|----2-----2-----------2----|0--------------|
A chord diagramA augmentedA|3-----------------3--------|---------------|
A chord diagramE MajorE|---------------------------|---------------|


Break:

e|-----------------|-----------------|-----------------|-----------------|
b|0-h3-3-3-h1-0----|0-h3-3-3-h1-0----|0-h3-3-3-h1-0----|0-h3-3-3-h1-0----|
g|--------------0--|--------------0--|--------------0--|--------------0--|
A chord diagramD MajorD|-----------------|-----------------|-----------------|-----------------|
A chord diagramA augmentedA|-----------------|-----------------|2----2-2----2----|2----2-2----2----|
A chord diagramE MajorE|3----3-3----3----|3----3-3----3----|-----------------|-----------------|


Verse 4:

And we walked down the block to my car and I almost brought him up
A chord diagramCadd9Cadd9                        A chord diagramD MajorD
e|------------3--------------|------0-----3-----0------|
b|------3-------3---3--------|--3-----3-----3-----3----|
g|--0-----0-------0---0---0--|----2-----2-----2-----2--|
A chord diagramD MajorD|----2-----2-----------2----|0------------------------|
A chord diagramA augmentedA|3-----------------3--------|-------------------------|
A chord diagramE MajorE|---------------------------|-------------------------|

But you start to talk about the movies that your family watches
A chord diagramCadd9Cadd9                        A chord diagramD MajorD
e|------------3--------------|------0-----3-----0------|
b|------3-------3---3--------|--3-----3-----3-----3----|
g|--0-----0-------0---0---0--|----2-----2-----2-----2--|
A chord diagramD MajorD|----2-----2-----------2----|0------------------------|
A chord diagramA augmentedA|3-----------------3--------|-------------------------|
A chord diagramE MajorE|---------------------------|-------------------------|

Every single Christmas and I won't talk about that
A chord diagramCadd9Cadd9                        A chord diagramG+G
e|------------3--------------|------------3--------------|
b|------3-------3---3--------|------3-------3---3--------|
g|--0-----0-------0---0---0--|--0-----0-------0---0---0--|
A chord diagramD MajorD|----2-----2-----------2----|----0-----0-----------0----|
A chord diagramA augmentedA|3-----------------3--------|---------------------------|
A chord diagramE MajorE|---------------------------|3-----------------3--------|

And for the first time, what's past is past
A chord diagramCadd9Cadd9
e|------------3--------------|
b|------3-------3---3--------|
g|--0-----0-------0---0---0--|
A chord diagramD MajorD|----2-----2-----------2----|
A chord diagramA augmentedA|3-----------------3--------|
A chord diagramE MajorE|---------------------------| Repeat(3x)


Chorus:
And you throw your head back laughing like a
A chord diagramCadd9Cadd9
e|------------3--------------|
b|------3-------3---3--------|
g|--0-----0-------0---0---0--|
A chord diagramD MajorD|----2-----2-----------2----|
A chord diagramA augmentedA|3-----------------3--------|
A chord diagramE MajorE|---------------------------|

little kid
 A chord diagramD MajorD
e|------0-----3-----0------|
b|--3-----3-----3-----3----|
g|----2-----2-----2-----2--|
A chord diagramD MajorD|0------------------------|
A chord diagramA augmentedA|-------------------------|
A chord diagramE MajorE|-------------------------|

I think it's strange that you think I'm funny cause
 A chord diagramE minorEm
e|------------0--------------|
b|------0-------0---0--------|
g|--0-----0-------0---0---0--|
A chord diagramD MajorD|----2-----2-----------2----|
A chord diagramA augmentedA|2--------------------------|
A chord diagramE MajorE|---------------------------|

he never did
 A chord diagramG+G
e|------------3--------------|
b|------3-------3---3--------|
g|--0-----0-------0---0---0--|
A chord diagramD MajorD|----0-----0-----------0----|
A chord diagramA augmentedA|---------------------------|
A chord diagramE MajorE|3-----------------3--------|

I've been spending the last 8 months
A chord diagramCadd9Cadd9
e|------------3--------------|
b|------3-------3---3--------|
g|--0-----0-------0---0---0--|
A chord diagramD MajorD|----2-----2-----------2----|
A chord diagramA augmentedA|3-----------------3--------|
A chord diagramE MajorE|---------------------------|

Thinking all love ever does is
A chord diagramD MajorD
e|------0-----3-----0------|
b|--3-----3-----3-----3----|
g|----2-----2-----2-----2--|
A chord diagramD MajorD|0------------------------|
A chord diagramA augmentedA|-------------------------|
A chord diagramE MajorE|-------------------------|


break   and burn  and end
A chord diagramG+G          A chord diagramD MajorD         A chord diagramE minorEm
e|----3----|----2----|----0------------|
b|0--------|3-----3--|0-----0----------|
g|--0---0--|--2------|--0-----0--------|
A chord diagramD MajorD|---------|0--------|----------2------|
A chord diagramA augmentedA|---------|---------|------------2----|
A chord diagramE MajorE|3--------|---------|0-------------0--|

But on a Wednesday in a cafe, I watched it begin again
A chord diagramCadd9Cadd9                        A chord diagramD MajorD
e|------------3--------------|------0-----5--|
b|------3-------3---3--------|--3-----3------|
g|--0-----0-------0---0---0--|----2-----2----|
A chord diagramD MajorD|----2-----2-----------2----|0--------------|
A chord diagramA augmentedA|3-----------------3--------|---------------|
A chord diagramE MajorE|---------------------------|---------------|


Refrain:

But on a Wednesday in a cafe, I watched it begin again
A chord diagramCadd9Cadd9                        A chord diagramD MajorD
e|------------3--------------|------0-----5(hold)--|
b|------3-------3---3--------|--3-----3------------|
g|--0-----0-------0---0---0--|----2-----2----------|
A chord diagramD MajorD|----2-----2-----------2----|0--------------------|
A chord diagramA augmentedA|3-----------------3--------|---------------------|
A chord diagramE MajorE|---------------------------|---------------------|


************************************

| h  Hammer-on

************************************

Other versions of Begin Again

Begin againChords
Begin again (Ver. 2)Chords
Begin again (Ver. 3)Chords
Begin again ukuleleChords
Begin again (Ver. 2)Tabs

Almost there ...

Sign in to get your own page with links to favourite songs and more. You are just one click away...

Login with Facebook Login with Google