Log in

One click and you are in

Login with Facebook Login with Google

Why sign up and log in

Guitar Tabs Explorer
Taylor Swift bass tabs for Begin again

Bass tabs

0:30
G|-----------------------------------------------------------------|
D|-----------------------------------------------------------------|
A|-----------------------------5-\---------------------------------|
E|-3-------------------------------3---------------3---------------|
  1 + 2 + 3 + 4 + 1 + 2 + 3 + 4 + 1 + 2 + 3 + 4 + 1 + 2 + 3 + 4 +

G|-----------------------------------------------------------------|
D|-----------------------------------------------------------------|
A|-3---------------3---------------2---------------2---------------|
E|-----------------------------------------------------------------|
  1 + 2 + 3 + 4 + 1 + 2 + 3 + 4 + 1 + 2 + 3 + 4 + 1 + 2 + 3 + 4 +

G|---------------------------------|
D|-----------------------------5-\-|
A|-3-----------33--3---------------|
E|---------------3-----------------|
  1 + 2 + 3 + 4 + 1 + 2 + 3 + 4 +

 Chorus 1:00
G|-----------------------------------------------------------------|
D|--------------------------------------------(4)--5---------------|
A|-3---------------5-------r-5-----7---------------------------2---|
E|-----------------------------------------------------------------|
  1 + 2 + 3 + 4 + 1 + 2 + 3 + 4 + 1 + 2 + 3 + 4 + 1 + 2 + 3 + 4 +

G|-----------------------------------------------------------------|
D|---------------------------------5-------4------------------5----|
A|-3-------3-------5------35-5---------------------7-------7---7-\-|
E|-----------------------------------------------------------------|
  1 + 2 + 3 + 4 + 1 + 2 + 3 + 4 + 1 + 2 + 3 + 4 + 1 + 2 + 3 + 4 +

G|-----------------------------------------------------------------|
D|-------------------------------------------------5---------------|
A|-3-------3-------5------(5)------------------5-------------------|
E|--------3------------------------3-------------------------------|
  1 + 2 + 3 + 4 + 1 + 2 + 3 + 4 + 1 + 2 + 3 + 4 + 1 + 2 + 3 + 4 +

 Verse 1:37
G|-----------------------------------------------------------------|
D|-----------------------------------------------------------------|
A|---------------------------------3------------3--3-------3-3-----|
E|-3---------------3-------r-3-----------------3-3--------3--------|
  1 + 2 + 3 + 4 + 1 + 2 + 3 + 4 + 1 + 2 + 3 + 4 + 1 + 2 + 3 + 4 +

G|-----------------------------------------------------------------|
D|-----------------------------2-\-----------------------------5-\-|
A|-2---------------2-------3-------3---------------3-------3-------|
E|----------------3----------------------------253-----------------|
  1 + 2 + 3 + 4 + 1 + 2 + 3 + 4 + 1 + 2 + 3 + 4 + 1 + 2 + 3 + 4 +

 Chorus 2:01
G|-----------------------------------------------------------------|
D|-----------------------------------------------------------------|
A|-3-------3-------5------35-5-----7------57---7-\-------------2---|
E|--------3----------------------------------------3---------------|
  1 + 2 + 3 + 4 + 1 + 2 + 3 + 4 + 1 + 2 + 3 + 4 + 1 + 2 + 3 + 4 +

G|-----------------------------------------------------------------|
D|---------------------------------5-------4---------------2---5---|
A|-3-------3-------5------35-5---------------------7------------7--|
E|--------3-----------------------------------------------3--------|
  1 + 2 + 3 + 4 + 1 + 2 + 3 + 4 + 1 + 2 + 3 + 4 + 1 + 2 + 3 + 4 +

G|---------------------------------|
D|---------------------------------|
A|-3-------3-3-----5------35-------|
E|--------3------------------------|
  1 + 2 + 3 + 4 + 1 + 2 + 3 + 4 +

 Solo 2:31
G|-----------------------------------------------------------------|
D|-5-5-5-5-5-5-5---5-5-5-5-5-5-5-----------------------------------|
A|---------------5/--------------5-3-3-3-3-3-3-3-3-5-5-5-5-5-5-5-5-|
E|-----------------------------------------------------------------|
  1 + 2 + 3 + 4 + 1 + 2 + 3 + 4 + 1 + 2 + 3 + 4 + 1 + 2 + 3 + 4 +

 Bridge 2:44
G|-----------------------------------------------------------------|
D|-------------2-------------------------------235-------797-------|
A|-3---------------5------35-5-----3-3-3-3-3-3-----5-5-------5-5-75|
E|-----------------------------------------------------------------|
  1 + 2 + 3 + 4 + 1 + 2 + 3 + 4 + 1 + 2 + 3 + 4 + 1 + 2 + 3 + 4 +

G|-----------------------------------------------------------------|
D|-----------------------------------------------------------------|
A|-3-3-3-3-3-3-3-3-2-2-2-2-2-2-3---3-3-3-3-3-------3---------------|
E|-------------------------------3-------------3-------------------|
  1 + 2 + 3 + 4 + 1 + 2 + 3 + 4 + 1 + 2 + 3 + 4 + 1 + 2 + 3 + 4 +

 Bass Lick 3:08
G|-16------------------|
D|------17-------------|
A|-----------19-\-10---|
E|---------------------|
  1 + 2 + 3 + 4 +

 Chorus 3:11
G|-----------------------------------------------------------------|
D|-----------------------------------------------------------------|
A|-3-------3-------5------35-5-----7------57---7-\-------------2---|
E|--------3----------------------------------------3-------3-3-----|
  1 + 2 + 3 + 4 + 1 + 2 + 3 + 4 + 1 + 2 + 3 + 4 + 1 + 2 + 3 + 4 +

G|-----------------------------------------------------------------|
D|---------------------------------5-------4---------------2---5---|
A|-3-------3-------5------35-5---------------------7------------7--|
E|--------------------------------------------------------3--------|
  1 + 2 + 3 + 4 + 1 + 2 + 3 + 4 + 1 + 2 + 3 + 4 + 1 + 2 + 3 + 4 +

G|---------------------------------|
D|---------------------------------|
A|-3-------3-3-----5------35-5-----|
E|--------3------------------------|
  1 + 2 + 3 + 4 + 1 + 2 + 3 + 4 +

 Outro 3:41
G|-------------------------------------------------------------------|
D|-------------------------------------------------------------------|
A|/10-----10-9----/9-7-----7\--------3-----------3---5---------------|
E|---------------------------0---------------------------------------|
  1 + 2 + 3 + 4 + 1 + 2 + 3 + 4 + 1 + 2 + 3 + 4 + 1 + 2 + 3 + 4 +

↓ Add and view comments below ↓

What do you think about this song and these tabs?

Add your comments, questions, rant or a thumbs up below.

Almost there ...

Sign in to get your own page with links to favourite songs and more. You are just one click away...

Login with Facebook Login with Google