Log in

One click and you are in

Login with Facebook Login with Google

Why sign up and log in

Guitar Tabs Explorer
Taylor Swift guitar tabs for Begin again (Ver. 2)

Guitar tabs with lyrics

Difficulty: Novice

Sorry for the slightly confusing formating


Tuning: Standard
Verse 1:
Took a deep breath in the...       he didn't like it when I wore high heels
Turned the lock and put my...      he always said he didn't get this song


Verse 2:
Walked in expecting you'd be...    but you got here early and you stand and wave
You pull my chair out and help...  and you don't know how nice that is


Verse 3:
You said you never met one girl... had as many James Taylor records as you
We tell stories and you don't...   I'm coming off a little shy

A chord diagramG+G
e|--------------3------------------|--------------3------------------|
b|------3----------------3------3--|------3----------------3------3--|
g|--0-------0-------0-------0------|--0-------0-------0-------0------|
A chord diagramD MajorD|----0---0---0---0---0--------0---|----0---0---0---0---0--------0---|
A chord diagramA augmentedA|---------------------------------|---------------------------------|
A chord diagramE MajorE|3-----------------------3--------|3-----------------------3--------|


Verse 1:
But I do
But I do                           I do

Verse 2:
I walk to you
But I do


Verse 3:
But I do
But I do                           I do

A chord diagramCadd9Cadd9
e|--------------3---------------3--|--------------3------------------|
b|------3---------------3----------|------3---------------3-------3--|
g|--0-------0-------0-------0------|--0-------0-------0-------0------|
A chord diagramD MajorD|----2---2---2---2---2-------2----|----2---2---2---2---2-------2----|
A chord diagramA augmentedA|3-----------------------3--------|3-----------------------3--------|
A chord diagramE MajorE|---------------------------------|---------------------------------|



Break:

A chord diagramG+G
e|--------------3------------------|--------------3------------------|
b|------3----------------3------3--|------3----------------3------3--|
g|--0-------0-------0-------0------|--0-------0-------0-------0------|
A chord diagramD MajorD|----0---0---0---0---0--------0---|----0---0---0---0---0--------0---|
A chord diagramA augmentedA|---------------------------------|---------------------------------|
A chord diagramE MajorE|3-----------------------3--------|3-----------------------3--------|



Chorus:

And you throw your head back...    little kid
A chord diagramCadd9Cadd9                              D/Dsus4
e|--------------3---------------3--|------0-------2-------3-------2--|
b|------3---------------3----------|--3-------3-------3-------3------|
g|--0-------0-------0-------0------|----2---2---2---2---2-------2----|
A chord diagramD MajorD|----2---2---2---2---2-------2----|0-----------------------0--------|
A chord diagramA augmentedA|3-----------------------3--------|---------------------------------|
A chord diagramE MajorE|---------------------------------|---------------------------------|


I think it's strange that you...   he never did
A chord diagramE minorEm                                 A chord diagramG+G
e|--------------0------------------|--------------3------------------|
b|------0---------------0-------0--|------3----------------3------3--|
g|--0-------0-------0-------0------|--0-------0-------0-------0------|
A chord diagramD MajorD|----2---2---2---2---2-------2----|----0---0---0---0---0--------0---|
A chord diagramA augmentedA|2-----------------------2--------|---------------------------------|
A chord diagramE MajorE|---------------------------------|3-----------------------3--------|


I've been spending the last 8 months thinking all love ever does is
A chord diagramCadd9Cadd9                              D/Dsus4
e|--------------3---------------3--|------0-------2-------3-------2--|
b|------3---------------3----------|--3-------3-------3-------3------|
g|--0-------0-------0-------0------|----2---2---2---2---2-------2----|
A chord diagramD MajorD|----2---2---2---2---2-------2----|0-----------------------0--------|
A chord diagramA augmentedA|3-----------------------3--------|---------------------------------|
A chord diagramE MajorE|---------------------------------|---------------------------------|


break              and burn         and end
A chord diagramG+G                  D/Dsus4          A chord diagramE minorEm
e|--------------3--------3-------2-|--------------0------------------|
b|------3------------3-------3-----|------0---------------0-------0--|
g|--0-------0----------2---2---2---|--0-------0-------0-------0------|
A chord diagramD MajorD|----0---0---0----0---------------|----2---2---2---2---2-------2----|
A chord diagramA augmentedA|---------------------------------|2-----------------------2--------|
A chord diagramE MajorE|3--------------------------------|---------------------------------|


But on a wednesday, in a cafe      I watched it begin again
A chord diagramCadd9Cadd9                              D/Dsus4
e|--------------3---------------3--|------3-------2-------3----------|
b|------3---------------3----------|--3-------3-------3-------3------|
g|--0-------0-------0-------0------|----2---2---2---2---2-------2----|
A chord diagramD MajorD|----2---2---2---2---2-------2----|0-----------------------0--------|
A chord diagramA augmentedA|3-----------------------3--------|---------------------------------|
A chord diagramE MajorE|---------------------------------|---------------------------------|



Break:
A chord diagramG+G
e|--------------3------------------|--------------3------------------|
b|------3----------------3------3--|------3----------------3------3--|
g|--0-------0-------0-------0------|--0-------0-------0-------0------|
A chord diagramD MajorD|----0---0---0---0---0--------0---|----0---0---0---0---0--------0---|
A chord diagramA augmentedA|---------------------------------|---------------------------------|
A chord diagramE MajorE|3-----------------------3--------|3-----------------------3--------|

A chord diagramCadd9Cadd9                              D/Dsus4
e|--------------3---------------3--|------3-------2-------3----------|
b|------3---------------3----------|--3-------3-------3-------3------|
g|--0-------0-------0-------0------|----2---2---2---2---2-------2----|
A chord diagramD MajorD|----2---2---2---2---2-------2----|0-----------------------0--------|
A chord diagramA augmentedA|3-----------------------3--------|---------------------------------|
A chord diagramE MajorE|---------------------------------|---------------------------------|



Bridge:
And we walked down the block to my car and I almost brought him up
A chord diagramCadd9Cadd9                              D/Dsus4
e|--------------3---------------3--|------3-------2-------3----------|
b|------3---------------3----------|--3-------3-------3-------3------|
g|--0-------0-------0-------0------|----2---2---2---2---2-------2----|
A chord diagramD MajorD|----2---2---2---2---2-------2----|0-----------------------0--------|
A chord diagramA augmentedA|3-----------------------3--------|---------------------------------|
A chord diagramE MajorE|---------------------------------|---------------------------------|


But you start to talk about       the movies that your family watches
A chord diagramCadd9Cadd9                              D/Dsus4
e|--------------3---------------3--|------3-------2-------3----------|
b|------3---------------3----------|--3-------3-------3-------3------|
g|--0-------0-------0-------0------|----2---2---2---2---2-------2----|
A chord diagramD MajorD|----2---2---2---2---2-------2----|0-----------------------0--------|
A chord diagramA augmentedA|3-----------------------3--------|---------------------------------|
A chord diagramE MajorE|---------------------------------|---------------------------------|


Every single Christmas, and I won't talk about that
A chord diagramCadd9Cadd9                              A chord diagramG+G
e|--------------3---------------3--|--------------3------------------|
b|------3---------------3----------|------3----------------3------3--|
g|--0-------0-------0-------0------|--0-------0-------0-------0------|
A chord diagramD MajorD|----2---2---2---2---2-------2----|----0---0---0---0---0--------0---|
A chord diagramA augmentedA|3-----------------------3--------|---------------------------------|
A chord diagramE MajorE|---------------------------------|3-----------------------3--------|


And for the first time, what's past is past
A chord diagramCadd9Cadd9 x 3
e|---------------------------------|
b|------3-------3-------3-------3--|
g|--0-------0-------0-------0------|
A chord diagramD MajorD|----2---2---2---2---2-------2----|
A chord diagramA augmentedA|3-----------------------3--------|
A chord diagramE MajorE|---------------------------------|



Chorus:




Outro:
A chord diagramG+G                  D/Dsus4          A chord diagramE minorEm
e|--------------3--------3-------2-|--------------0------------------|
b|------3------------3-------3-----|------0---------------0-------0--|
g|--0-------0----------2---2---2---|--0-------0-------0-------0------|
A chord diagramD MajorD|----0---0---0----0---------------|----2---2---2---2---2-------2----|
A chord diagramA augmentedA|---------------------------------|2-----------------------2--------|
A chord diagramE MajorE|3--------------------------------|---------------------------------|

But on a Wednesday, in a cafe      I watched it begin again
A chord diagramCadd9Cadd9                              D/Dsus4
e|--------------3---------------3--|------3-------2-------3----------|
b|------3---------------3----------|--3-------3-------3--------------|
g|--0-------0-------0-------0------|----2---2---2---2---2------------|
A chord diagramD MajorD|----2---2---2---2---2-------2----|0--------------------------------|
A chord diagramA augmentedA|3-----------------------3--------|---------------------------------|
A chord diagramE MajorE|---------------------------------|---------------------------------|

Other versions of Begin Again

Begin againChords
Begin again (Ver. 2)Chords
Begin again (Ver. 3)Chords
Begin again ukuleleChords
Begin againTabs

Almost there ...

Sign in to get your own page with links to favourite songs and more. You are just one click away...

Login with Facebook Login with Google