Log in

One click and you are in

Login with Facebook Login with Google

Why sign up and log in

Guitar Tabs Explorer
Taylor Swift bass tabs for Bad blood

Bass tabs with lyrics

----------------------------------------------------------------------------

Timestamps: 0:00 - Intro/Chorus (No Bass)

      0:22 - Verse (Bass starts)

      0:44 - Pre-Chorus

      0:55 - Chorus

      1:16 - Verse

      1:38 - Pre-Chorus

      1:49 - Chorus

      2:10 - Bridge

      2:34 - Outro/Chorus

      2:55 - End Song

------------------------------------------------------------------------------------------------------------


Intro/Chorus: 'cause baby, now we've got bad blood.

       You know, it used to be mad love.

       So take a look what you've done.

       'cause baby, now we've got bad blood. Hey!

       Now we've got problems.

       And I don't think we can solve 'em.

       You made a really deep cut.

       And baby now we've got bad blood. Hey!

Verse: G|----------------------------------|
    D|-----------------------------5555-|
    A|-333333----------555555777777-----|
    E|-------3333333333-----------------|

     Did you have to do this?

     I was thinking that you could be trusted.

    G|----------------------------------|
    D|-----------------------------55---|
    A|-333333------33--555555777777--77-|
    E|-------333333--33-----------------|

     Did you have to ruin

     what was shiny? Now, it's all rusted.

    G|----------------------------------|
    D|-----------------------------5555-|
    A|-333333----------555555777777-----|
    E|-------3333333333-----------------|

     Did you have to hit me

     where I'm weak? Baby, I couldn't breath.

    G|----------------------------------|
    D|-----------------------------55---|
    A|-333333------33--555555777777--77-|
    E|-------333333--33-----------------|

     And rub it in so deep, it's like

     salt in the wound, like you're laughing right at me.


Pre-Chorus: G|----------------------------------|
      D|----------------------------------|
      A|-333333----------5555557777775555-|
      E|-------3333333333-----------------|

        Oh, it's so sad to think about the

      G|--------------------------------|
      D|--------------------------------|
      A|-333333----------5555555555555~-|
      E|-------3333333333---------------|

        good times...You and I!


Chorus: G|------------|
    D|------------| X4
    A|-3~---------|
    E|----33-33-3-|

      'Cause baby now we've got bad blood. You know it

      used to be mad love. So take a

      look what you've done. 'Cause baby

      now we've got bad blood. Hey!

    G|----------------------------------|
    D|----------------------------------| X2
    A|-3-3333----------5-55557~-77-5555-|
    E|-------3~-33-3333-----------------|

      Now we've got problems. And I don't think we can solve 'em.

      You made a really deep cut. And baby, now we've got bad blood. Hey!


Verse: G|----------------------------------|
    D|-----------------------------5555-|
    A|-333333----------555555777777-----|
    E|-------3333333333-----------------|

     Did you think we'd we be fine?

     Still got scars in my back from your knives. So

    G|----------------------------------|
    D|-----------------------------55---|
    A|-333333------33--555555777777--77-|
    E|-------333333--33-----------------|

     don't think it's in the past.

     These kind of wounds they last and they last. Now

    G|----------------------------------|
    D|-----------------------------5555-|
    A|-333333----------555555777777-----|
    E|-------3333333333-----------------|

     Did you think it all through?

     All these things will catch up to you. In

    G|----------------------------------|
    D|-----------------------------55---|
    A|-333333------33--555555777777--77-|
    E|-------333333--33-----------------|

     time can heal but this won't.

     So if you come in my way, just don't.


Pre-Chorus: G|----------------------------------|
      D|----------------------------------|
      A|-333333----------5555557777775555-|
      E|-------3333333333-----------------|

        Oh, it's so sad to think about the

      G|--------------------------------|
      D|--------------------------------|
      A|-333333----------5555555555555~-|
      E|-------3333333333---------------|

        good times...You and I!


Chorus: G|------------|
    D|------------| X4
    A|-3~---------|
    E|----33-33-3-|

      'Cause baby now we've got bad blood. You know it

      used to be mad love. So take a

      look what you've done. 'Cause baby

      now we've got bad blood. Hey!

    G|----------------------------------|
    D|----------------------------------| X2
    A|-3-3333----------5-55557~-77-5555-|
    E|-------3~-33-3333-----------------|

      Now we've got problems. And I don't think we can solve 'em.

      You made a really deep cut. And baby, now we've got bad blood. Hey!


Bridge:  |---------------------P.M.---------------------|
    G|--------------------------------------------------|
    D|--------------------------------------------------|
    A|-3-33----------5-55-7~-5555-3-33---------5-55-57~-|
    E|-----3~-33-3333-----------------3-33-3333---------|

      Band aids don't fix bullet holes.

      You say sorry just for show.

      If you live like that, you live with ghosts.

    G|--------------------------------------------------|
    D|--------------------------------------------------|
    A|-3-33----------5-55-7~-5555-3-33---------5-55-57~-|
    E|-----3~-33-3333-----------------3-33-3333---------|

      Band aids don't fix bullet holes.

      You say sorry just for show.

      If you live like that, you live with ghosts.

      If you love like that, blood runs cold.


Chorus/Outro: G|----------------------------------|
       D|----------------------------------| X4
       A|-3-3333----------5-55557~-77-5555-|
       E|-------3~-33-3333-----------------|

         'Cause baby now we've got bad blood. You know it used to be mad love. So take a

         look what you've done. 'Cause baby now we've got bad blood. Hey!

         Now we've got problems. And I don't think we can solve 'em.

         You made a really deep cut. And baby, now we've got bad blood. Hey!

------------------------------------------------------------------------------------------------------------

Almost there ...

Sign in to get your own page with links to favourite songs and more. You are just one click away...

Login with Facebook Login with Google