Log in

One click and you are in

Login with Facebook Login with Google

Why sign up and log in

Guitar Tabs Explorer
Taylor Swift chords for Back to december ukulele (Ver. 2)

Back To December Ukulele chords by Taylor Swift (Ver. 2)

Taylor Swift chords for Back to december ukulele (Ver. 2)

Guitar chords

Tuning: G C E A (G C E A)


Verse 1:

A|---------------------------------------------------------------|
E|3-5-3-2-2-2-0-2-3---5-3-2-2-2-0-2-3--3-5-3-5-4-3-5-7-5-7-5-2---|
C|---------------------------------------------------------------|
G|---------------------------------------------------------------|
A|---------------------------------------------------------------|
E|3-5-3-2-2-2-0-2-3---5-3-2-2-2-0-2-3--3-5-3-5-4-3-5-7-5-7-5-2---|
C|---------------------------------------------------------------|
G|---------------------------------------------------------------|


Pre-chorus:
Am         G
 Because the last time you saw me
       C           F
Is still burned in the back of your mind
      Am     G         F
You gave me roses and I left them there to die


Chorus:

A|---------------------------------------------------------------------------|
E|---------------------------------------------------------------------------|
C|-7-5-7-7-5-7-7-7-7-5-7-5-7-5-7-7-5-7-10-9-10-9-10-14-9-10-7-8--------------|
G|---------------------------------------------------------------------------|

A|---------------------------------------------------------------------------|
E|---------------------------------------------------------------------------|
C|-7-5-3-3-5-7-7-5-7-5-7-5-3-------------------------------------------------|
G|---------------------------------------------------------------------------|

A|---------------------------------------------------------------------------|
E|---------------------------------------------------------------------------|
C|-7-5-7-7-5-7-7-7-7-5-7-5-7-5-7-7-5-7-10-9-10-9-10-14-9-10-7-8--------------|
G|---------------------------------------------------------------------------|

A|---------------------------------------------------------------------------|
E|---------------------------------------------------------------------------|
C|-7-5-3-3-5-7-7-5-7-5-7-5-3-------------------------------------------------|
G|---------------------------------------------------------------------------|


Verse 2:

A|---------------------------------------------------------------|
E|3-5-3-2-2-2-0-2-3---5-3-2-2-2-0-2-3--3-5-3-5-4-3-5-7-5-7-5-2---|
C|---------------------------------------------------------------|
G|---------------------------------------------------------------|

A|---------------------------------------------------------------|
E|3-5-3-2-2-2-0-2-3---5-3-2-2-2-0-2-3--3-5-3-5-4-3-5-7-5-7-5-2---|
C|---------------------------------------------------------------|
G|---------------------------------------------------------------|


Pre-chorus:
Am           G
 And then the cold came, the dark days
   C         F
When fear crept into my mind
      Am           G      F
You gave me all your love And all I gave you was goodbye


Chorus:

A|---------------------------------------------------------------------------|
E|---------------------------------------------------------------------------|
C|-7-5-7-7-5-7-7-7-7-5-7-5-7-5-7-7-5-7-10-9-10-9-10-14-9-10-7-8--------------|
G|---------------------------------------------------------------------------|

A|---------------------------------------------------------------------------|
E|---------------------------------------------------------------------------|
C|-7-5-3-3-5-7-7-5-7-5-7-5-3-------------------------------------------------|
G|---------------------------------------------------------------------------|

A|---------------------------------------------------------------------------|
E|---------------------------------------------------------------------------|
C|-7-5-7-7-5-7-7-7-7-5-7-5-7-5-7-7-5-7-10-9-10-9-10-14-9-10-7-8--------------|
G|---------------------------------------------------------------------------|


Chorus:

A|---------------------------------------------------------------------------|
E|---------------------------------------------------------------------------|
C|-7-5-7-7-5-7-7-7-7-5-7-5-7-5-7-7-5-7-10-9-10-9-10-14-9-10-7-8--------------|
G|---------------------------------------------------------------------------|

A|---------------------------------------------------------------------------|
E|---------------------------------------------------------------------------|
C|-7-5-3-3-5-7-7-5-7-5-7-5-3-------------------------------------------------|
G|---------------------------------------------------------------------------|

A|---------------------------------------------------------------------------|
E|---------------------------------------------------------------------------|
C|-7-5-7-7-5-7-7-7-7-5-7-5-7-5-7-7-5-7-10-9-10-9-10-14-9-10-7-8--------------|
G|---------------------------------------------------------------------------|


Outro:
C   Am   F         C
i go back to december all the time

Other versions of Back To December Ukulele

Back to december ukuleleChords

Almost there ...

Sign in to get your own page with links to favourite songs and more. You are just one click away...

Login with Facebook Login with Google