Log in

One click and you are in

Login with Facebook Login with Google

Why sign up and log in

Guitar Tabs Explorer
Taylor Swift bass tabs for All you had to do was stay

All You Had To Do Was Stay bass tab by Taylor Swift

Taylor Swift bass tabs for All you had to do was stay

Bass tabs

Album: 1989
Track: All You Had To Do Was Stay

Tuning: Standard (EADG)
Intro
G|--------------------|--------------------|--------------------|--------------------|
D|--------------------|--------------------|--------------------|--------------------|
A|--------------------|--------------------|--------------------|--------------------|
E|--------------------|--------------------|--------------------|--------------------|


Verse
G|--------------------|--------------------|--------------------|--------------------|
D|--------------------|--------------------|--------------------|--------------------|
A|--------------------|--------------------|--------------------|--------------------|x2
E|--------------------|--------------------|--------------------|--------------------|


Chorus
G|-------------------3|--------------------|-------------------5|------------------3-|
D|--------------------|--------------------|--------------------|--------------------|
A|-1---1---1-1-1--1---|-------------------1|-3---3---3-3-3--3---|-5---5---5--3--1----|x3
E|--------------------|-1---1---1-1-1--1---|--------------------|--------------------|


Verse
G|--------------------|--------------------|--------------------|--------------------|
D|--------------------|--------------------|--------------------|--------------------|
A|--------------------|--------------------|--------------------|--------------------|
E|--------------------|--------------------|--------------------|--------------------|
(Optional)
G|-------------------3|--------------------|-------------------5|--------------------|
D|--------------------|--------------------|--------------------|--------------------|
A|-1---1---1-1-1--1---|-------------------1|-3---3---3-3-3--3---|-5------------------|
E|--------------------|-1---1---1-1-1--1---|--------------------|--------------------|


Chorus
G|-------------------3|--------------------|-------------------5|------------------3-|
D|--------------------|--------------------|--------------------|--------------------|
A|-1---1---1-1-1--1---|-------------------1|-3---3---3-3-3--3---|-5---5---5--3--1----|x5
E|--------------------|-1---1---1-1-1--1---|--------------------|--------------------|


Bridge (faintly)
G|--------------------|--------------------|--------------------|--------------------|
D|--------------------|--------------------|--------------------|--------------------|
A|-1------------------|/8------------------|\3------------------|/5------------------|
E|--------------------|--------------------|--------------------|--------------------|


Chorus
G|-------------------3|--------------------|-------------------5|------------------3-|
D|--------------------|--------------------|--------------------|--------------------|
A|-1---1---1-1-1--1---|-------------------1|-3---3---3-3-3--3---|-5---5---5--3--1----|x4
E|--------------------|-1---1---1-1-1--1---|--------------------|--------------------|

G|-------------------3|--------------------|-------------------5|--------------------|
D|--------------------|--------------------|--------------------|--------------------|
A|-1---1---1-1-1--1---|-------------------1|-3---3---3-3-3--3---|-5---5---5--3-------|

Almost there ...

Sign in to get your own page with links to favourite songs and more. You are just one click away...

Login with Facebook Login with Google