Log in

One click and you are in

Login with Facebook Login with Google

Why sign up and log in

Guitar Tabs Explorer
Taylor Swift guitar tabs for All too well

Guitar tabs

Taylor Swift - All Too Well

Electric Guitar Parts..

Spent a lot of time doing this because nobody else seems to have it quite right.
Hope you agree mine is right, iv played it with the song many times and i think its perfection

Key:
h  - hammer-on
\  - slide down
/  - slide up
Intro
e---------------------------------------------------|
B---------5-3--------5-----------5------------------|
G----------------------5----------------------------|
D----------------------------------3-------5--5-----|
A---------------------------------------------------|
E---------------------------------------------------|

e---------------------------------------------------|
B---------5-3--------5-----------5------------------|
G----------------------5----------------------------|
D----------------------------------3-------5--5-5---|
A---------------------------------------------------|
E---------------------------------------------------|


2nd Verse
e---------------------------------------------------|
B--------3/5-3-----3/5------------------------------|
G--5-------------------5-------------------5--------|
D----------------------------------2/3--------------|
A---------------------------------------------------|
E---------------------------------------------------|


Bridge
e------10/12-10----10/12----------------------------|
B------------------------13-----------13-12---------|
G-------------------------------9/10--------10\9----|
D---------------------------------------------------|
A---------------------------------------------------|
E---------------------------------------------------|


Outro
e---------------------------------------------------|
B---------3h5-3-------------------------------------|
G-----------------5-------5-------------------------|
D-------------------3-------------------------------|
A---------------------------------------------------|
E---------------------------------------------------|

Other versions of All Too Well

All too wellChords
All too well (Ver. 2)Chords
All too well ukuleleChords
All too well (Ver. 2)Tabs

Almost there ...

Sign in to get your own page with links to favourite songs and more. You are just one click away...

Login with Facebook Login with Google