Log in

One click and you are in

Login with Facebook Login with Google

Why sign up and log in

Guitar Tabs Explorer
Taylor Swift bass tabs for All too well

Bass tabs

Tuning: Standard tuning


0:41 Verse x3
G|-------------------------------------------------------------------|
D|o-----------------------------------------------------------------o|
A|o-3-3-3-3-3-3-3-3-------------------------------------------------o|
E|------------------3-3-3-3-3-3-3-3-5-5-5-5-5-5-5-5-1-1-1-1-1-1-1-3--|
  1 + 2 + 3 + 4 + 1 + 2 + 3 + 4 + 1 + 2 + 3 + 4 + 1 + 2 + 3 + 4 +

1:12 Pre-Chorus
G|-----------------------------------------------------------------|
D|-----------------------------------------------------------------|
A|-3-3-3-3-3-3-3-3-------------------------------------------------|
E|-----------------3-3-3-3-3-3-3-3-5-5-5-5-5-5-5-5-3-3-3-3-3-3-3-3-|
  1 + 2 + 3 + 4 + 1 + 2 + 3 + 4 + 1 + 2 + 3 + 4 + 1 + 2 + 3 + 4 +

G|-----------------------------------|
D|-----------------------------------|
A|-----------------------------------|
E|-1-1-1-1-3-3-3-3-5-5-5-5-1-1/-12--|
  1 + 2 + 3 + 4 + 1 + 2 + 3 + 4 +

1:27 Chorus
G|-------------------------------------------------------------------|
D|o-----------------------------------------------------------------o|
A|o-3-3-3-3-3-3-3-3-------------------------------------------------o|
E|------------------3-3-3-3-3-3-3-3-5-5-5-5-5-5-5-5-1-1-1-1-1-1-1-3--|

1:48 Verse
G|-----------------------------------------------------------------|
D|-----------------------------------------------------------------|
A|-3-3-3-3-3-3-3-3-------------------------------------------------|
E|-----------------3-3-3-3-3-3-3-3-5-5-5-5-5-5-5-5-1-1-1-1-1-1-1---|
  1 + 2 + 3 + 4 + 1 + 2 + 3 + 4 + 1 + 2 + 3 + 4 + 1 + 2 + 3 + 4 +

G|---------------------------------------------------------------------|
D|---------------------------------------------------------------------|
A|-353-3-3-3-3-3/7-7-5-5-5-5-5-2-2-3-0-0-0-0-0-------------------------|
E|---------------------------------------------3-5-3-0-1-1-1-1-1-1-1-3-|
  1 + 2 + 3 + 4 + 1 + 2 + 3 + 4 + 1 + 2 + 3 + 4  +  1 + 2 + 3 + 4 +

2:09 Pre-Chorus
G|-----------------------------------------------------------------|
D|-----------------------------------------------------------------|
A|-3-3-3-3-3-3-3-3-------------------------------------------------|
E|-----------------3-3-3-3-3-3-3-3-5-5-5-5-5-5-5-5-3-3-3-3-3-3-3-3-|
  1 + 2 + 3 + 4 + 1 + 2 + 3 + 4 + 1 + 2 + 3 + 4 + 1 + 2 + 3 + 4 +

G|---------------------------------|
D|---------------------------------|
A|---------------------------------|
E|-1-1-1-1-3-3-3-3-5-5-5-5-7-7-7--|
  1 + 2 + 3 + 4 + 1 + 2 + 3 + 4 +

2:24 Chorus
G|-------------------------------------------------------------------|
D|o-----------------------------------------------------------------o|
A|o-3-3-3-3-3-3-3-3-------------------------------------------------o|
E|------------------3-3-3-3-3-3-3-3-5-5-5-5-5-5-5-5-1-1-1-1-1-1-1-3--|

2:45 Bridge
G|-----------------------------------------------------------------|
D|-----------------------------------------------------------------|
A|-3-3-3-3-3-3-3-------------2-2-2-----------2-2-------------------|
E|---------------1-3-3-3-3-3-------5-5-5-5-5-------1-1-1-1-1-1-1-1-|
B|(1-1-1-1-1-1-1)--------------------------------------------------|
  1 + 2 + 3 + 4 + 1 + 2 + 3 + 4 + 1 + 2 + 3 + 4 + 1 + 2 + 3 + 4 +

G|---------------------------------|
D|---------------------------------|
A|---------------------------------|
E|-3-3-3-3-3-3-3-3-3-3-3-3-3-3-3-3-|
  1 + 2 + 3 + 4 + 1 + 2 + 3 + 4 +

3:00
G|-------------------------------------------------------------------|
D|o-----------------------------------------------------------------o|
A|o-3-3-3-3-3-3-3-3-------------------------------------------------o|
E|------------------3-3-3-3-3-3-3-3-5-5-5-5-5-5-5-5-1-1-1-1-1-1-1-3--|
  1 + 2 + 3 + 4 + 1 + 2 + 3 + 4 + 1 + 2 + 3 + 4 + 1 + 2 + 3 + 4 +

3:21
G|-----------------------------------------------------------------|
D|-----------------------------------------------------------------|
A|-3-3-3-3-3-3-5-7-----------2-2-3---------------------------------|
E|-----------------3-3-3-3-3-------5-5-5-5-5-5-5-5-1-1-1-1-1-1-1-1-|
  1 + 2 + 3 + 4 + 1 + 2 + 3 + 4 + 1 + 2 + 3 + 4 + 1 + 2 + 3 + 4 +

G|-----------------------------------------------------------------|
D|-----------------------------------------------------------------|
A|-3-3-3-3-3-3-3-3-------------------------------------------------|
E|-----------------3-3-3-3-3-3-3-3-5-5-5-5-5-5-5-5-1-1-1-1-1-1-1-1-|
  1 + 2 + 3 + 4 + 1 + 2 + 3 + 4 + 1 + 2 + 3 + 4 + 1 + 2 + 3 + 4 +

G|-----------------------------------------------------------------|
D|-----------------------------------------------------------------|
A|-----------------------------------------------------------------|
E|-1-1-1-1-1-1-1-1-------------------------------------------------|
  1 + 2 + 3 + 4 + 1 + 2 + 3 + 4 + 1 + 2 + 3 + 4 + 1 + 2 + 3 + 4 +

G|-----------------------------------------------------------------|
D|-----------------------------------------------------------------|
A|-----------------3-3-3-3-3-3-3-3---------------------------------|
E|---------------------------------3-3-3-3-3-3-3-5-5-5-5-5-5-5-5-5-|
  1 + 2 + 3 + 4 + 1 + 2 + 3 + 4 + 1 + 2 + 3 + 4 + 1 + 2 + 3 + 4 +

G|-----------------------------------------------------------------|
D|-----------------------------------------------------------------|
A|-----------------3-3-3-3-3-3-3-3---------------------------------|
E|-1-1-1-1-1-1-1-3-----------------3-3-3-3-3-3-3-3-5-5-5-5-5-5-5-5-|
  1 + 2 + 3 + 4 + 1 + 2 + 3 + 4 + 1 + 2 + 3 + 4 + 1 + 2 + 3 + 4 +

G|-----------------------------------------------------------------|
D|-----------------------------------------------------------------|
A|-----------------3-3-3-3-3-3-3-3---------------------------------|
E|-1-1-1-1-1-1-1-1-----------------3-3-3-3-3-3-3-3-5-5-5-5-5-5-5-5-|
  1 + 2 + 3 + 4 + 1 + 2 + 3 + 4 + 1 + 2 + 3 + 4 + 1 + 2 + 3 + 4 +

G|-----------------------------------------------------------------|
D|-----------------------------------------------------------------|
A|-------------------3-3-3-3-3-3-3---------------------------------|
E|-1-1-1-1-1-1-1-1-1---------------3-3-3-3-3-3-3-3-5-5-5-5-5-5-5-5-|
  1 + 2 + 3 + 4 + 1 + 2 + 3 + 4 + 1 + 2 + 3 + 4 + 1 + 2 + 3 + 4 +

G|-------------------|
D|-------------------|
A|-------------------|
E|-1-1-1-1-1-13-13--|
  1 + 2 + 3 + 4 +

4:36 Chorus x3
G|-------------------------------------------------------------------|
D|o-----------------------------------------------------------------o|
A|o-3-3-3-3-3-3-3-3-------------------------------------------------o|
E|------------------3-3-3-3-3-3-3-3-5-5-5-5-5-5-5-5-1-1-1-1-1-1-1-3--|
B|-(1-1-1-1-1-1-1-1)-------------------------------------------------|

5:07 Outro
G|-----------------------------------------------------------------|
D|-----------------------------------------------------------------|
A|-3-3-3-3-3-3-3-3-------------------------------------------------|
E|-----------------3-3-3-3-3-3-3-3-5-5-5-5-5-5-5-5-1-1-1-1-1-1-1-1-|
  1 + 2 + 3 + 4 + 1 + 2 + 3 + 4 + 1 + 2 + 3 + 4 + 1 + 2 + 3 + 4 +

Almost there ...

Sign in to get your own page with links to favourite songs and more. You are just one click away...

Login with Facebook Login with Google