Log in

One click and you are in

Login with Facebook Login with Google

Why sign up and log in

Guitar Tabs Explorer
Taylor Swift tabs for All too wel (Taylor's version)

Guitar tabs

A chord diagramE MajorE |----------------------------|--0L----------0--0L-0-------|
A chord diagramBB |----------------------------|-----------------------3L---|
A chord diagramG+G |-----------------------0----|----------------------------|
A chord diagramD MajorD |----------------------------|----------------------------|
A chord diagramA augmentedA |----------------------------|----------------------------|
A chord diagramE MajorE |----------------------------|----------------------------|


-----------------0L-0-------|-----------------0L-0-------|
--3L----------3--------1L---|--1L----------1-------------|
----------------------------|-----------------------2L---|
----------------------------|----------------------------|
----------------------------|----------------------------|
----------------------------|----------------------------|


----------------------------|
-----1L-1--------------1----|
--2-------------------------|
----------------------------|
----------------------------|
----------------------------|


----------------------------------------------------|
--1--------1--------1L----1-------------------------|
--------------------------------2L-2--0L-------0----|
----------------------------------------------------|
----------------------------------------------------|
----------------------------------------------------|


----------------------------|
-----3--3--3L-3-------------|
----------------------------|
----------------------------|
----------------------------|
----------------------------|

--0--0--0-----0-------------------------------------|
--------------------3L----3-----1-----1-------------|
----------------------------------------------------|
--------------------------------------------3L------|
----------------------------------------------------|
----------------------------------------------------|


----------------------------|
-----------1L-1--1----------|
----------------------------|
--3--3L-3-------------------|
----------------------------|
----------------------------|


----------------------------------------------------|
--------1-----1-----1L----1-------------------------|
--------------------------------0L----0-----0--0----|
----------------------------------------------------|
----------------------------------------------------|
----------------------------------------------------|


-----------------0L-0L------|
--3--------3L-3-------------|
----------------------------|
----------------------------|
----------------------------|
----------------------------|


--0-------------------------------------------------|
--------3-----1-----1L----1-----------1--1----------|
----------------------------------------------------|
--------------------------------------------3L------|
----------------------------------------------------|
----------------------------------------------------|


----------------------------|----------------------------|
-----------1L-1L-1----------|-----------------------1----|
----------------------------|----------------------------|
--3--3L-3-------------------|----------------------------|
----------------------------|----------------------------|
----------------------------|----------------------------|


----------------------------------------------------|
--1--------1--------1L----1-------------------------|
--------------------------------2L-2--0L-------0----|
----------------------------------------------------|
----------------------------------------------------|
----------------------------------------------------|


----------------------------|
-----3--3--3L-3-------------|
----------------------------|
----------------------------|
----------------------------|
----------------------------|


--0--0--0-----0-------------------------------------|
--------------------3L----3-----1-----1-------------|
----------------------------------------------------|
--------------------------------------------3L------|
----------------------------------------------------|
----------------------------------------------------|


----------------------------|
-----------1L-1--1----------|
----------------------------|
--3--3L-3-------------------|
----------------------------|
----------------------------|


----------------------------------------------------|
--1--------1--------1--------1----------------------|
-----2-----------------2L-2-----------0L-0----------|
----------------------------------------------------|
----------------------------------------------------|
----------------------------------------------------|


--------------------------------0L----0L------------|
--3-----3--3-----1--3L----3-------------------------|
----------------------------------------------------|
----------------------------------------------------|
----------------------------------------------------|
----------------------------------------------------|


--0-------------------------------------------------|
--------3-----1-----1L----1-----------1--1----------|
----------------------------------------------------|
--------------------------------------------3L------|
----------------------------------------------------|
----------------------------------------------------|


----------------------------|
-----------1L-1L-1-----1----|
----------------------------|
--3--3L-3-------------------|
----------------------------|
----------------------------|


-----------3L-3-------------------------------------|
--1--1--------------3L----3-----1-----1-----1-------|
----------------------------------------------------|
----------------------------------------------------|
----------------------------------------------------|
----------------------------------------------------|


-----------3L-3-------------------------------------|
--1--1--------------3L----3-----1-----1-----1-------|
----------------------------------------------------|
----------------------------------------------------|
----------------------------------------------------|
----------------------------------------------------|


-----------3L-3-------------------------------------|
--1--1--------------3L----3-----1--1L-1-------------|
--------------------------------------------0L------|
----------------------------------------------------|
----------------------------------------------------|
----------------------------------------------------|


--------3L----3--1--1L----1-----0L----0-------------|----------|----------|
----------------------------------------------------|-----0----|--1-------|
--0-----------------------------------------2L------|--2-------|----------|
----------------------------------------------------|----------|----------|
----------------------------------------------------|----------|----------|
----------------------------------------------------|----------|----------|


--3-----3--3--------3L----3-------------------------|
--------------------------------1-----1-------------|
----------------------------------------------------|
----------------------------------------------------|
----------------------------------------------------|
----------------------------------------------------|


--3--3-----3--------3L----3-------------------------|
----------------------------------------------------|
----------------------------------------------------|
----------------------------------------------------|
----------------------------------------------------|
----------------------------------------------------|


--3--------3--------3L----3-----0-----0-----0-------|
----------------------------------------------------|
----------------------------------------------------|
----------------------------------------------------|
----------------------------------------------------|
----------------------------------------------------|


--0--------------------------------------------0L---|
-----3-----3L-3--1--1-----------1-----1--3----------|
----------------------------------------------------|
----------------------------------------------------|
----------------------------------------------------|
----------------------------------------------------|


--0--------0L-0--------0----|-----------0L-0-------------|-------|
-----1--3--------1--3-------|--3--3L-3--------0L-0--1L---|--1----|
----------------------------|----------------------------|-------|
----------------------------|----------------------------|-------|
----------------------------|----------------------------|-------|
----------------------------|----------------------------|-------|


----------------------------|--0L----------0--0L-0-------|
----------------------------|-----------------------3L---|
-----------------------0----|----------------------------|
----------------------------|----------------------------|
----------------------------|----------------------------|
----------------------------|----------------------------|


-----------------0L-0-------|-----------------0L-0-------|
--3L----------3--------1L---|--1L----------1-------------|
----------------------------|-----------------------2L---|
----------------------------|----------------------------|
----------------------------|----------------------------|
----------------------------|----------------------------|


----------------------------|
-----1L-1--------------1----|
--2-------------------------|
----------------------------|
----------------------------|
----------------------------|


----------------------------------------------------|
--1--------1--------1L----1-------------------------|
--------------------------------2L-2--0L-------0----|
----------------------------------------------------|
----------------------------------------------------|
----------------------------------------------------|


----------------------------|
-----3--3--3L-3-------------|
----------------------------|
----------------------------|
----------------------------|
----------------------------|


--0--0--0-----0-------------------------------------|
--------------------3L----3-----1-----1-------------|
----------------------------------------------------|
--------------------------------------------3L------|
----------------------------------------------------|
----------------------------------------------------|


----------------------------|
-----------1L-1--1----------|
----------------------------|
--3--3L-3-------------------|
----------------------------|
----------------------------|


----------------------------------------------------|
--------1-----1-----1L----1-------------------------|
--------------------------------0L----0-----0--0----|
----------------------------------------------------|
----------------------------------------------------|
----------------------------------------------------|


-----------------0L-0L------|
--3--------3L-3-------------|
----------------------------|
----------------------------|
----------------------------|
----------------------------|


--0-------------------------------------------------|
--------3-----1-----1L----1-----------1--1----------|
----------------------------------------------------|
--------------------------------------------3L------|
----------------------------------------------------|
----------------------------------------------------|


----------------------------|----------------------------|
-----------1L-1L-1----------|-----------------------1----|
----------------------------|----------------------------|
--3--3L-3-------------------|----------------------------|
----------------------------|----------------------------|
----------------------------|----------------------------|


----------------------------------------------------|
--1--------1--------1L----1-------------------------|
--------------------------------2L-2--0L-------0----|
----------------------------------------------------|
----------------------------------------------------|
----------------------------------------------------|


----------------------------|
-----3--3--3L-3-------------|
----------------------------|
----------------------------|
----------------------------|
----------------------------|


--0--0--0-----0-------------------------------------|
--------------------3L----3-----1-----1-------------|
----------------------------------------------------|
--------------------------------------------3L------|
----------------------------------------------------|
----------------------------------------------------|


----------------------------|
-----------1L-1--1----------|
----------------------------|
--3--3L-3-------------------|
----------------------------|
----------------------------|


----------------------------------------------------|
--1--------1--------1--------1----------------------|
-----2-----------------2L-2-----------0L-0----------|
----------------------------------------------------|
----------------------------------------------------|
----------------------------------------------------|


--------------------------------0L----0L------------|
--3-----3--3-----1--3L----3-------------------------|
----------------------------------------------------|
----------------------------------------------------|
----------------------------------------------------|
----------------------------------------------------|


--0-------------------------------------------------|
--------3-----1-----1L----1-----------1--1----------|
----------------------------------------------------|
--------------------------------------------3L------|
----------------------------------------------------|
----------------------------------------------------|


----------------------------|
-----------1L-1L-1-----1----|
----------------------------|
--3--3L-3-------------------|
----------------------------|
----------------------------|


-----------3L-3-------------------------------------|
--1--1--------------3L----3-----1-----1-----1-------|
----------------------------------------------------|
----------------------------------------------------|
----------------------------------------------------|
----------------------------------------------------|


-----------3L-3-------------------------------------|
--1--1--------------3L----3-----1-----1-----1-------|
----------------------------------------------------|
----------------------------------------------------|
----------------------------------------------------|
----------------------------------------------------|


-----------3L-3-------------------------------------|
--1--1--------------3L----3-----1--1L-1-------------|
--------------------------------------------0L------|
----------------------------------------------------|
----------------------------------------------------|
----------------------------------------------------|


--------3L----3--1--1L----1-----0L----0-------------|----------|----------|
----------------------------------------------------|-----0----|--1-------|
--0-----------------------------------------2L------|--2-------|----------|
----------------------------------------------------|----------|----------|
----------------------------------------------------|----------|----------|
----------------------------------------------------|----------|----------|


--3-----3--3--------3L----3-------------------------|
--------------------------------1-----1-------------|
----------------------------------------------------|
----------------------------------------------------|
----------------------------------------------------|
----------------------------------------------------|


--3--3-----3--------3L----3-------------------------|
----------------------------------------------------|
----------------------------------------------------|
----------------------------------------------------|
----------------------------------------------------|
----------------------------------------------------|


--3--------3--------3L----3-----0-----0-----0-------|
----------------------------------------------------|
----------------------------------------------------|
----------------------------------------------------|
----------------------------------------------------|
----------------------------------------------------|



--0--------------------------------------------0L---|
-----3-----3L-3--1--1-----------1-----1--3----------|
----------------------------------------------------|
----------------------------------------------------|
----------------------------------------------------|
----------------------------------------------------|


--0--------0L-0--------0----|-----------0L-0-------------|-------||
-----1--3--------1--3-------|--3--3L-3--------0L-0--1L---|--1----||
----------------------------|----------------------------|-------||
----------------------------|----------------------------|-------||
----------------------------|----------------------------|-------||
----------------------------|----------------------------|-------||


🏷Legend
L - tied note
x - dead note
h - hammer on/pull off
b - bend
s - slide
~ - vibrato
g - ghost note
> - accentuated note
t - trill
M - palm mute
. - staccato
P - popping (bass)
S - slapping (bass)
+ - tapping
W - wide vibrato
< - fade in
w - whammy bar
= - tremolo picking
v - brush up
^ - brush down
V - pick stroke up
n - pick stroke down

Other versions of All Too Wel

All too wellChords
All too well (10 minute version)Chords
All too well (Ver. 2)Chords
All too well (taylors version)Chords
All too well 10 minute versionChords
All too well ukuleleChords
All too wellTabs
All too well (Ver. 2)Tabs
All too well (Ver. 3)Tabs

Almost there ...

Sign in to get your own page with links to favourite songs and more. You are just one click away...

Login with Facebook Login with Google