Log in

One click and you are in

Login with Facebook Login with Google

Why sign up and log in

Guitar Tabs Explorer
Taylor Swift guitar tabs for A perfectly good heart

Solo tabs

Q     A chord diagramE MajorE   E.   S  S  S  S  S  S  S
A chord diagramE MajorE||--12----11--12---11-12-12-11-12-11----|
A chord diagramBB||-----------------------------------12-|
A chord diagramG+G||--------------------------------------|
A chord diagramD MajorD||--------------------------------------|
A chord diagramA augmentedA||--------------------------------------|
A chord diagramE MajorE||--------------------------------------|
   A chord diagramE MajorE   S  A chord diagramE MajorE   E.   S  S  A chord diagramE MajorE   S  S  S S     S  A chord diagramE MajorE   S  A chord diagramE MajorE   S E.  A chord diagramE MajorE  A chord diagramE MajorE  A chord diagramE MajorE
--11--11-14--14---11-14-14--11-12-12-9-|--11-12--12-11--11-9---9--9--9--|
---------------------------------------|--------------------------------|
---------------------------------------|--------------------------------|
---------------------------------------|--------------------------------|
---------------------------------------|--------------------------------|
---------------------------------------|--------------------------------|


   S  S  S  A chord diagramE MajorE   S  A chord diagramE MajorE   A chord diagramE MajorE   S  S  S  S  S  S     Q     A chord diagramE MajorE   Q.      S  S  S  S
--11-12-11-11--11-14--14--12-11-12-14-16-17-|--19----19--19------17-16-14-12-|
--------------------------------------------|--------------------------------|
--------------------------------------------|--------------------------------|
--------------------------------------------|--------------------------------|
--------------------------------------------|--------------------------------|
--------------------------------------------|--------------------------------|


   A chord diagramE MajorE   A chord diagramE MajorE   A chord diagramE MajorE      Q     S  S  S  S  S  S
--14--16--17--14g16----14-16-17-16-14-12-|
-----------------------------------------|
-----------------------------------------|
-----------------------------------------|
-----------------------------------------|
-----------------------------------------|


  S  S S  S  S S  S  S S  S S S S S S S    Q    S S  S  S  H
-------9-12----9-12----9-12---9---------|-------7-9-11-14-19--------||
----12------12------10------9---9-7---7-|--7------------------------||
------------------------------------9---|---------------------------||
----------------------------------------|---------------------------||
----------------------------------------|---------------------------||
----------------------------------------|---------------------------||



Duration Legend
---------------
W - whole
H - half
Q - quarter
A chord diagramE MajorE - 8th
S - 16th
T - 32nd

Other versions of A Perfectly Good Heart

A perfectly good heartChords
A perfectly good heart (Ver. 2)Chords

↓ Add and view comments below ↓

What do you think about this song and these tabs?

Add your comments, questions, rant or a thumbs up below.

Almost there ...

Sign in to get your own page with links to favourite songs and more. You are just one click away...

Login with Facebook Login with Google