Log in

One click and you are in

Login with Facebook Login with Google

Why sign up and log in

Guitar Tabs Explorer
Sweet Trip bass tabs for No words to be found

Bass tabs

Tuning: Standard (E A D G)

🎸 Intro:

G|----------------------------------------------------------------|
D|----------------------------------------------------------------|
A|----------------------------------------------------------------|
E|---12----12-12----12-12----12-14----14\9----9-9----9-9----9-9---|

G|----------------------------------------------------------------|
D|----------------------------------------------------------------|
A|----------------------------------------------------------------|
E|---9\5----5-5----5-5----5-7----7-5----5-5----5-5----5-7---11----| x2
🎸 Chorus:

G|----------------------------------------------------------------|
D|-----------11--------------------------9/11---9-9-9-9-9---------|
A|-------11------11-7-9---9-9-9-9-9-7-9---------------------------|
E|---9------------------------------------------------------------|


G|----------------------------|
D|-------9-9-9-9-9------------|
A|---11-------------11-9-7----|
E|----------------------------| x2

G|----------------------------------------------------------------|
D|----------------------------------------------------------------|
A|----------------------------------------------------------------|
E|---12----12-12----12-12----12-14----14\9----9-9----9-9----9-9---|

G|----------------------------------------------------------------|
D|----------------------------------------------------------------|
A|----------------------------------------------------------------|
E|---9\5----5-5----5-5----5-7----7-5----5-5----5-5----5-7---11----| x2


************************************

| \ Slide down
| / Slide up

************************************

Almost there ...

Sign in to get your own page with links to favourite songs and more. You are just one click away...

Login with Facebook Login with Google