Search tabs and chords

Search for song, artist or band

Log in

One click and you are in

Login with Facebook Login with Google

Why sign up and log in

Guitar Tabs Explorer
Sweet Trip guitar chords for Air supply

Guitar chords with lyrics

The song starts with a repeating synth line that, if played on guitar, is played like this:


e|-----------------5---------------------------------------------------------|
B|--------------------6--8---------------------------------------------------|
G|-----------5--7------------------------------------------------------------|
D|--5--7--8------------------------------------------------------------------|
A|---------------------------------------------------------------------------|
E|---------------------------------------------------------------------------|

After that repeats 8 times the drums come in, and after 8 more measures the intro starts.

Gm chord diagramGmGm Cm chord diagramCmCm Bb chord diagramBbBb Cm chord diagramCmCm (x4) (Play these as barre chords)

Verse 1:
Gm chord diagramGmGm                             Cm chord diagramCmCm
Don't you make me smile if you don't intend to

Bb chord diagramBbBb                        Cm chord diagramCmCm
Only maybe try if you can pretend to

Gm chord diagramGmGm                           Cm chord diagramCmCm
Well, here is my mission, my reason, my statement

Bb chord diagramBbBb             Cm chord diagramCmCm
My complaint

Gm chord diagramGmGm                               Cm chord diagramCmCm
Hardly pushed your luck, focused all intention

Bb chord diagramBbBb                                       Cm chord diagramCmCm
Don't you think I mind when you said you meant to?

Gm chord diagramGmGm                           Cm chord diagramCmCm
Open up the blinds, pull the curtain, the window

Bb chord diagramBbBb        Cm chord diagramCmCm
Run away

Chorus:

(This part is in 7/8. Strum and hold the Gm chord diagramGmGm chords for 4 beats, and the Cm chord diagramCmCm chords for 3)

Gm chord diagramGmGm                       Cm6 chord diagramCm6Cm6
You and I (keep with me, love, pretend to)

Gm chord diagramGmGm                       Cm6 chord diagramCm6Cm6
You and I (came with my love undercover)

Gm chord diagramGmGm                     Cm6 chord diagramCm6Cm6
You and I ('til we seduced each other)

Gm chord diagramGmGm         Cm6 chord diagramCm6Cm6
You-ah-da-da-da-da

Gm chord diagramGmGm                  Cm6 chord diagramCm6Cm6
You and I (and many lies that don't follow)

Gm chord diagramGmGm                      Cm6 chord diagramCm6Cm6
You and I (suffered and then we'll recover)

Gm chord diagramGmGm                        Cm6 chord diagramCm6Cm6
You and I (and then we're cutting off each other's air supply)

Then play the Intro again

Verse 2:

Gm chord diagramGmGm                                        Cm chord diagramCmCm
Girls who spend their lives in disgusting gestures

Bb chord diagramBbBb                             Cm chord diagramCmCm
Always seeking boys to relieve the tension

Gm chord diagramGmGm                              Cm chord diagramCmCm
Maybe you know better, you know something, you know me?

Bb chord diagramBbBb            Cm chord diagramCmCm
Come and play

Gm chord diagramGmGm                          Cm chord diagramCmCm
Baby, if you try, please do not content to

Bb chord diagramBbBb                           Cm chord diagramCmCm
Anybody knows, you know, I'd cross your temple

Gm chord diagramGmGm                           Cm chord diagramCmCm
Girl, you are the reason, my mission, my lover

Bb chord diagramBbBb            Cm chord diagramCmCm
My complaint

Chorus:

Gm chord diagramGmGm                       Cm6 chord diagramCm6Cm6
You and I (keep with me, love, pretend to)

Gm chord diagramGmGm                       Cm6 chord diagramCm6Cm6
You and I (came with my love undercover)

Gm chord diagramGmGm                     Cm6 chord diagramCm6Cm6
You and I ('til we seduced each other)

Gm chord diagramGmGm         Cm6 chord diagramCm6Cm6
You-ah-da-da-da-da

Gm chord diagramGmGm                  Cm6 chord diagramCm6Cm6
You and I (and many lies that don't follow)

Gm chord diagramGmGm                      Cm6 chord diagramCm6Cm6
You and I (suffered and then we'll recover)

Gm chord diagramGmGm                        Cm6 chord diagramCm6Cm6
You and I (and then we're cutting off each other's air supply)


Gm chord diagramGmGm
The chord sequence from the intro is then played until the end, where the song ends of Gm chord diagramGmGm. During this time
the lead guitar plays a solo


e|---------------------------------------------------------------------------|
B|----------------------------------15----------------------------------15---|
G|--10/12--12/14--12--14/15--15/17------14\12--12/14--12--14/15--15/17-------|
D|---------------------------------------------------------------------------|
A|---------------------------------------------------------------------------|
E|---------------------------------------------------------------------------|


e|---------------------------------------------------------------------------|
B|---------------------------------------------------------------------------|
G|--14\12--------------------------------------------------------------------|
D|---------------------------------------------------------------------------|
A|---------------------------------------------------------------------------|
E|---------------------------------------------------------------------------|



************************************

| /  Slide up
| \  Slide down

************************************

Almost there ...

Sign in to get your own page with links to favourite songs and more. You are just one click away...

Login with Facebook Login with Google