Log in

One click and you are in

Login with Facebook Login with Google

Why sign up and log in

Guitar Tabs Explorer
Matthew Sweet bass tabs for Ive been waiting

Bass tabs

Tuning: D Tuning (D G C F)


Intro:
F|-------------|---------------|-----------|---------------|
C|-2--2-2-2-2-4|---------------|-----------|---------------|
G|-------------|-2--2-2---2-2-4|-----------|-2--2-2---2-2-4|
D|-------------|---------------|-0---0-0-0-|---------------|
F|------------|---------------|-----------|---------------|
C|-2---2-2-2-4|---------------|-----------|---------------|
G|------------|-2--2-2---2-2-4|-----------|-2--2-2---2-2-4|
D|------------|---------------|-0---0-0-0-|---------------|


Verse 1:
F|------------|---------------|-----------|---------------| x2
C|-2---2-2-2-4|---------------|-----------|---------------|
G|------------|-2--2-2---2-2-4|-----------|-2--2-2---2-2-4|
D|------------|---------------|-0---0-0-0-|---------------|


Pre-Chorus:
F|----------|-------------|----------|---------------|
C|----------|-------------|----------|-2--2-2-2------|
G|----------|-------------|-2---2--2-|---------------|
D|-5---4--4-|-2----2-2--2-|----------|----------5--4-|


Chorus:
F|----------|-----------------|-------------------------|
C|----------|-----------------|-2--2--2-2---------------|
G|----------|-2--2-2-2-2-2-2-2|-------------------------|
D|-2--2---2-|-----------------|------------5--5--4--4--4|

F|----------|----------|
C|----------|----------|
G|----------|-2--------|
D|-2--2---2-|----------|

Interlude:
F|-------------|---------------|-----------|---------------|
C|-2--2-2-2-2-4|---------------|-----------|---------------|
G|-------------|-2--2-2---2-2-4|-----------|-2--2-2---2-2-4|
D|-------------|---------------|-0---0-0-0-|---------------|

Verse 2:
F|------------|---------------|-----------|---------------| x2
C|-2---2-2-2-4|---------------|-----------|---------------|
G|------------|-2--2-2---2-2-4|-----------|-2--2-2---2-2-4|
D|------------|---------------|-0---0-0-0-|---------------|


Pre-Chorus:
F|----------|-------------|----------|---------------|
C|----------|-------------|----------|-2--2-2-2------|
G|----------|-------------|-2---2--2-|---------------|
D|-5---4--4-|-2----2-2--2-|----------|----------5--4-|


Chorus:
F|----------|-----------------|-------------------------| x2
C|----------|-----------------|-2--2--2-2---------------|
G|----------|-2--2-2-2-2-2-2-2|-------------------------|
D|-2--2---2-|-----------------|------------5--5--4--4--4|

F|----------|----------|
C|----------|----------|
G|----------|-2--------|
D|-2--2---2-|----------|

Interlude:
F|-------------|---------------|-----------|---------------|
C|-2--2-2-2-2-4|---------------|-----------|---------------|
G|-------------|-2--2-2---2-2-4|-----------|-2--2-2---2-2-4|
D|-------------|---------------|-0---0-0-0-|---------------|


Solo:
F|----------|-------------|----------|---------------|
C|----------|-------------|----------|-2--2-2-2------|
G|----------|-------------|-2---2--2-|---------------|
D|-5---4--4-|-2----2-2--2-|----------|----------5--4-|

F|----------|-----------------|-------------------------|
C|----------|-----------------|-2--2--2-2---------------|
G|----------|-2--2-2-2-2-2-2-2|-------------------------|
D|-2--2---2-|-----------------|------------5--5--4--4--4|

F|----------|-----------------|-------------------------|
C|----------|-----------------|-2--2--2-2---------------|
G|----------|-2--2-2-2-2-2-2-2|-------------------------|
D|-2--2---2-|-----------------|------------5---x-5-5--4-|

F|-----------|--------------|--------------------------|
C|-2-----2-2-|--------------|-2--2-2-2-2---------------|
G|-----2-----|--------------|--------------------------|
D|-----------|-5---5---5-5-5|-------------5--5--4--4--4|

F|----------|----------|
C|----------|----------|
G|----------|-2--------|
D|-2--2---2-|----------|


Verse 3:
(02:18 ~ 02:25 - No Bass)

(02:26 ~ 02:31)
F|-9|
C|--|
G|--|
D|--|


Pre-Chorus:
(02:32)
F|---9---------9|
C|-9---7h9-7h9--|
G|--------------|
D|--------------|

F|----------|-------------|----------|--------------|
C|----------|-------------|----------|-2--2--2------|
G|----------|-------------|-2---2--2-|--------------|
D|-5---4--4-|-2-----2-2--2|----------|---------5--4-|


Chorus:
F|----------|-----------------|-------------------------|
C|----------|-----------------|-2--2--2-2---------------|
G|----------|-2--2-2-2-2-2-2-4|-------------------------|
D|-2--2---2-|-----------------|------------5--5--4--4--4|

F|----------|-----------------|-------------------------| x2
C|----------|-----------------|-2--2--2-2---------------|
G|----------|-2--2-2-2-2-2-2-2|-------------------------|
D|-2--2---2-|-----------------|------------5--5--4--4--4|

F|----------|----------|
C|----------|----------|
G|----------|-2--------|
D|-2--2---2-|----------|

Interlude:
F|------------|---------------|-----------|---------------|
C|-2---2-2-2-4|---------------|-----------|---------------|
G|------------|-2--2-2---2-2-4|-----------|-2--2-2---2-2-4|
D|------------|---------------|-0---0-0-0-|---------------|


Outro:
F|------------|---------------| x3
C|-2---2-2-2-2|---------------|
G|------------|-2--2-2---2-2-4|
D|------------|---------------|

F|--------------|---------------|
C|-2-2-2-2-2-2-2|---------------|
G|--------------|-2--2-2---2-2-4|
D|--------------|---------------|

F|----------|--|
C|----------|--|
G|----------|--|
D|-5---4--4-|-2|


**********************************

| h Hammer-on
| x Dead note

**********************************

Almost there ...

Sign in to get your own page with links to favourite songs and more. You are just one click away...

Login with Facebook Login with Google