Search tabs and chords

Search for song, artist or band

Log in

One click and you are in

Login with Facebook Login with Google

Why sign up and log in

Guitar Tabs Explorer
Swan Lee guitar chords for Flowers in the wintertime

Flowers In The Wintertime chords by Swan Lee

Swan Lee guitar chords for Flowers in the wintertime

Guitar chords with lyrics

Tuning: Standard (E A D G B E)

Tuning: D#G#C#F#BD# (all strings tuned down one half step, except 2nd string which stays a A chord diagramBB)

Chords:
Note: Chords relative to tuning
A:         02210
Am11:      07705
Am7:       02200
Bb6:       10021
Bsus4/F#: 222200
Bsus4:     22200
D13:      1099000
D6/9/F#:  2x0200
Dadd9:     57760
Dm/A       03220
Dm9:      10x101000
Esus4:    022200
Fmaj9:    133000
Fsus2/A:   03000
G/A:       00023
G/C:       30023
G9sus4:   3x0200
Gm7:      3x0321
Gsus2/F:  1x0220


Verse 1:
  A chord diagramEsus4Esus4                              A chord diagramBsus4Bsus4  /F#   Fsus2/A Gsus2/F
e|---------------------------------|---------------------------------|
B|---------------------------------|---------------------------------|
G|---------------------------------|---------------------------------|
D|-2-----------0-------------------|---------------------------------|
A|-------2-----------0---------0---|-2---------------0---------------|
E|-------------------------2-------|---------2---------------1-------|

Silence of the morning, we are oh so tired, oh yeah

  A chord diagramEsus4Esus4                              A chord diagramBsus4Bsus4  /F#   Fsus2/A Gsus2/F
e|---------------------------------|---------------------------------|
B|---------------------------------|---------------------------------|
G|---------------------------------|---------------------------------|
D|-2-----------0-------------------|---------------------------------|
A|-------2-----------0---------0---|-2---------------0---------------|
E|-------------------------2-------|---------2---------------1-------|

You are standing on the water as the stars collide, oh yeah

  A chord diagramEsus4Esus4                              A chord diagramBsus4Bsus4  /F#   Fsus2/A Gsus2/F
e|---------------------------------|---------------------------------|
B|---------------------------------|---------------------------------|
G|---------------------------------|---------------------------------|
D|-2-----------0-------------------|---------------------------------|
A|-------2-----------0---------0---|-2---------------0---------------|
E|-------------------------2-------|---------2---------------1-------|

By the morning light you can see them die, oh yeah

  A chord diagramEsus4Esus4                              A chord diagramBsus4Bsus4  /F#     A chord diagramAm7Am7    A chord diagramFMaj9Fmaj9
e|---------------------------------|---------------------------------|
B|---------------------------------|---------------------------------|
G|---------------------------------|---------------------------------|
D|-2-----------0-------------------|---------------------------------|
A|-------2-----------0---------0---|-2---------------0---------------|
E|-------------------------2-------|---------2---------------1-------|

We are all in one as we kiss bye bye, oh yeah

Chorus 1:
A chord diagramDm9Dm9    A chord diagramD13D13            A chord diagramFMaj9Fmaj9                         A chord diagramG9sus4G9sus4
Oh     oh,    can you bring me sweet flowers in the morning light?
A chord diagramDm9Dm9    A chord diagramD13D13            A chord diagramFMaj9Fmaj9                         A chord diagramG9sus4G9sus4
Oh     oh,    can you bring me sweet flowers in the wintertime?


Verse 2:
  A chord diagramEsus4Esus4                              A chord diagramBsus4Bsus4  /F#   Fsus2/A Gsus2/F
e|---------------------------------|---------------------------------|
B|---------------------------------|---------------------------------|
G|---------------------------------|---------------------------------|
D|-2-----------0-------------------|---------------------------------|
A|-------2-----------0---------0---|-2---------------0---------------|
E|-------------------------2-------|---------2---------------1-------|

In your solitude and grace you can silence me, oh yeah

  A chord diagramEsus4Esus4                              A chord diagramBsus4Bsus4  /F#   Fsus2/A Gsus2/F
e|---------------------------------|---------------------------------|
B|---------------------------------|---------------------------------|
G|---------------------------------|---------------------------------|
D|-2-----------0-------------------|---------------------------------|
A|-------2-----------0---------0---|-2---------------0---------------|
E|-------------------------2-------|---------2---------------1-------|

And with a bleeding heart you set me free, oh yeah

  A chord diagramEsus4Esus4                              A chord diagramBsus4Bsus4  /F#   Fsus2/A Gsus2/F
e|---------------------------------|---------------------------------|
B|---------------------------------|---------------------------------|
G|---------------------------------|---------------------------------|
D|-2-----------0-------------------|---------------------------------|
A|-------2-----------0---------0---|-2---------------0---------------|
E|-------------------------2-------|---------2---------------1-------|

And the number of your name, it will never die, oh yeah

  A chord diagramEsus4Esus4                              A chord diagramBsus4Bsus4  /F#     A chord diagramAm7Am7    A chord diagramFMaj9Fmaj9
e|---------------------------------|---------------------------------|
B|---------------------------------|---------------------------------|
G|---------------------------------|---------------------------------|
D|-2-----------0-------------------|---------------------------------|
A|-------2-----------0---------0---|-2---------------0---------------|
E|-------------------------2-------|---------2---------------1-------|

It is hidden in the mist of a lullaby, oh yeah


Chorus 2:
A chord diagramDm9Dm9    A chord diagramD13D13            A chord diagramFMaj9Fmaj9                         A chord diagramG9sus4G9sus4
Oh     oh,    can you bring me sweet flowers in the morning light?
A chord diagramDm9Dm9    A chord diagramD13D13            A chord diagramFMaj9Fmaj9                         A chord diagramG9sus4G9sus4
Oh     oh,    can you bring me sweet flowers in the wintertime?
A chord diagramDm9Dm9    A chord diagramD13D13            A chord diagramFMaj9Fmaj9                         A chord diagramG9sus4G9sus4
Oh     oh,    can you bring me sweet flowers in the morning light?
A chord diagramDm9Dm9    A chord diagramD13D13            A chord diagramFMaj9Fmaj9                         A chord diagramG9sus4G9sus4
Oh     oh,    can you bring me sweet flowers in the wintertime?


Bridge:
A chord diagramDadd9Dadd9        A chord diagramGm7Gm7          A chord diagramAm11Am11         A chord diagramBb6Bb6    G/C A chord diagramG/AG/A
A chord diagramDadd9Dadd9        A chord diagramGm7Gm7          D6/9/F#      A chord diagramA majorA Dm/A A chord diagramA majorA


Chorus 3:
A chord diagramDm9Dm9    A chord diagramD13D13            A chord diagramFMaj9Fmaj9                         A chord diagramG9sus4G9sus4
Oh     oh,    can you bring me sweet flowers in the morning light?
A chord diagramDm9Dm9    A chord diagramD13D13            A chord diagramFMaj9Fmaj9                         A chord diagramG9sus4G9sus4
Oh     oh,    can you bring me sweet flowers in the wintertime?
A chord diagramDm9Dm9    A chord diagramD13D13            A chord diagramFMaj9Fmaj9                         A chord diagramG9sus4G9sus4
Oh     oh,    can you bring me sweet flowers in the morning light?
A chord diagramDm9Dm9    A chord diagramD13D13            A chord diagramFMaj9Fmaj9                         A chord diagramG9sus4G9sus4
Oh     oh,    can you bring me sweet flowers in the wintertime?


A chord diagramDm9Dm9     A chord diagramD13D13     A chord diagramFMaj9Fmaj9    A chord diagramG9sus4G9sus4  x4


Chorus 4:
A chord diagramDm9Dm9    A chord diagramD13D13            A chord diagramFMaj9Fmaj9                         A chord diagramG9sus4G9sus4
Oh     oh,    can you bring me sweet flowers in the wintertime?

A chord diagramDm9Dm9    A chord diagramD13D13            A chord diagramFMaj9Fmaj9                         A chord diagramG9sus4G9sus4

A chord diagramDm9Dm9    A chord diagramD13D13            A chord diagramFMaj9Fmaj9                         A chord diagramG9sus4G9sus4
Oh     oh,    can you bring me sweet flowers in the wintertime?

A chord diagramDm9Dm9    A chord diagramD13D13            A chord diagramFMaj9Fmaj9                         A chord diagramG9sus4G9sus4

Finish on A chord diagramDadd9Dadd9
data-matched-content-ui-type="image_card_stacked"

Almost there ...

Sign in to get your own page with links to favourite songs and more. You are just one click away...

Login with Facebook Login with Google