Search tabs and chords

Search for song, artist or band

Log in

One click and you are in

Login with Facebook Login with Google

Why sign up and log in

Guitar Tabs Explorer
Swan Lee guitar chords for Dream away

Guitar chords with lyrics

Tuning: Standard (E chord diagramEE A chord diagramAA D chord diagramDD G chord diagramGG B chord diagramBB E chord diagramEE)

Swan Lee - Dream Away

Tabbed from the album "Enter".

Tuning: Standard

Chords:
Am chord diagramAmAm:        02210
D chord diagramDD/F# chord diagramF#F#:     2x0230
Fmaj9 chord diagramFmaj9Fmaj9:    1x3210 Thumb on bass note
E chord diagramEE:        022100
E7 chord diagramE7E7:       020100
E7sus4 chord diagramE7sus4E7sus4:   020200
Gadd9 chord diagramGadd9Gadd9/B chord diagramBB:  757000
Am9 chord diagramAm9Am9/C chord diagramCC:    877000
Dm9 chord diagramDm9Dm9/F chord diagramFF:    1x0210
Dbmadd9:   46640
Eb7b9/G chord diagramGG:    5640
Bmadd11:   24430
G chord diagramGG:        320033
Em chord diagramEmEm:       022000


Intro:
Am chord diagramAmAm


Verse 1:

Am chord diagramAmAm    D chord diagramDD/F# chord diagramF#F#    Fmaj9 chord diagramFmaj9Fmaj9         E chord diagramEE
Dream away the sun and the rain
Am chord diagramAmAm    D chord diagramDD/F# chord diagramF#F#   Fmaj9 chord diagramFmaj9Fmaj9          E chord diagramEE
Dream away no-one will complain
Am chord diagramAmAm    D chord diagramDD/F# chord diagramF#F# Fmaj9 chord diagramFmaj9Fmaj9       E chord diagramEE
Dream away again and again
Am chord diagramAmAm    D chord diagramDD/F# chord diagramF#F#     Fmaj9 chord diagramFmaj9Fmaj9   E7sus4 chord diagramE7sus4E7sus4 E7 chord diagramE7E7
Dream away the devil's way

Chorus 1:

       Am chord diagramAmAm            Gadd9 chord diagramGadd9Gadd9/B chord diagramBB       Am9 chord diagramAm9Am9/C chord diagramCC         E chord diagramEE
    e|-------------|-------------|-------------|-------------|
    B|-------------|-------------|-------------|-------------|
    G|-------------|-------------|-------------|-------------|
    D|-------------|-------------|-------------|-------------|
    A|-0-----------|-2-----------|-3-----------|-7---6---7---|
    E|-------------|-------------|-------------|-------------|
Don't  try     and  break    the   news     to    me
       Am chord diagramAmAm            Gadd9 chord diagramGadd9Gadd9/B chord diagramBB       E chord diagramEE             E chord diagramEE
    e|-------------|-------------|-------------|-------------|
    B|-------------|-------------|-------------|-------------|
    G|-------------|-------------|-------------|-------------|
    D|-------------|-------------|-------------|-------------|
    A|-0-----------|-2-----------|-------------|-------------|
    E|-------------|-------------|-0-----------|-------------|
Don't  say   what's going          on

       Am chord diagramAmAm            Gadd9 chord diagramGadd9Gadd9/B chord diagramBB       Am9 chord diagramAm9Am9/C chord diagramCC         E chord diagramEE
    e|-------------|-------------|-------------|-------------|
    B|-------------|-------------|-------------|-------------|
    G|-------------|-------------|-------------|-------------|
    D|-------------|-------------|-------------|-------------|
    A|-0-----------|-2-----------|-3-----------|-7---6---7---|
    E|-------------|-------------|-------------|-------------|
 Don't  try     and  tell     me   what     to    do
       Am chord diagramAmAm            Gadd9 chord diagramGadd9Gadd9/B chord diagramBB       E chord diagramEE             E chord diagramEE
    e|-------------|-------------|-------------|-------------|
    B|-------------|-------------|-------------|-------------|
    G|-------------|-------------|-------------|-------------|
    D|-------------|-------------|-------------|-------------|
    A|-0-----------|-2-----------|-------------|-------------|
    E|-------------|-------------|-0-----------|-------------|
By    then     I    will     be   gone


Verse 2:
Am chord diagramAmAm    D chord diagramDD/F# chord diagramF#F#     Dm9 chord diagramDm9Dm9/F chord diagramFF      E7sus4 chord diagramE7sus4E7sus4 E7 chord diagramE7E7
Dream away the brightest sky
Am chord diagramAmAm    D chord diagramDD/F# chord diagramF#F#     Dm9 chord diagramDm9Dm9/F chord diagramFF   E7sus4 chord diagramE7sus4E7sus4 E7 chord diagramE7E7
Dream away I'm ready to fly
Am chord diagramAmAm    D chord diagramDD/F# chord diagramF#F#     Dm9 chord diagramDm9Dm9/F chord diagramFF   E7sus4 chord diagramE7sus4E7sus4 E7 chord diagramE7E7
Dream away the harder I try
Am chord diagramAmAm    D chord diagramDD/F# chord diagramF#F#     Dm9 chord diagramDm9Dm9/F chord diagramFF      E7sus4 chord diagramE7sus4E7sus4 E7 chord diagramE7E7
Dream away the tender good-bye


Chorus 2:
      Am chord diagramAmAm     Gadd9 chord diagramGadd9Gadd9/B chord diagramBB    Am9 chord diagramAm9Am9/C chord diagramCC   E chord diagramEE
Don't try and break the news to me
      Am chord diagramAmAm        Gadd9 chord diagramGadd9Gadd9/B chord diagramBB E chord diagramEE
Don't say what's going on
      Am chord diagramAmAm     Gadd9 chord diagramGadd9Gadd9/B chord diagramBB  Am9 chord diagramAm9Am9/C chord diagramCC   E chord diagramEE
Don't try and tell me what to do
    Am chord diagramAmAm   Gadd9 chord diagramGadd9Gadd9/B chord diagramBB   E chord diagramEE
By then I will be gone

      Am chord diagramAmAm     Gadd9 chord diagramGadd9Gadd9/B chord diagramBB    Am9 chord diagramAm9Am9/C chord diagramCC   E chord diagramEE
Don't try and break the news to me
      Am chord diagramAmAm        Gadd9 chord diagramGadd9Gadd9/B chord diagramBB E chord diagramEE
Don't say what's going on
      Am chord diagramAmAm     Gadd9 chord diagramGadd9Gadd9/B chord diagramBB  Am9 chord diagramAm9Am9/C chord diagramCC   E chord diagramEE
Don't try and tell me what to do
    Am chord diagramAmAm   Gadd9 chord diagramGadd9Gadd9/B chord diagramBB   E chord diagramEE
By then I will be gone


Bridge:
   Dbmadd9       Eb7b9/G chord diagramGG       Bmadd11       G chord diagramGG     Em chord diagramEmEm
e|-------0-----|-------0-----|-------0-----|-------------|
B|-----4---4---|-----4---4---|-----3---3---|---3---------|
G|---6-------6-|---6-------6-|---4-------4-|-----0-------|
D|-6-----------|-5-----------|-4-----------|-5-----2-----|
A|-------------|-------------|-------------|-------------|
E|-------------|-------------|-------------|-------------|


Verse 3:
Guitar solo
Am chord diagramAmAm     D chord diagramDD/F# chord diagramF#F#   Dm9 chord diagramDm9Dm9/F chord diagramFF  E7sus4 chord diagramE7sus4E7sus4 E7 chord diagramE7E7 x 4


Chorus 3:
      Am chord diagramAmAm     Gadd9 chord diagramGadd9Gadd9/B chord diagramBB    Am9 chord diagramAm9Am9/C chord diagramCC   E chord diagramEE
Don't try and break the news to me
      Am chord diagramAmAm        Gadd9 chord diagramGadd9Gadd9/B chord diagramBB E chord diagramEE
Don't say what's going on
      Am chord diagramAmAm     Gadd9 chord diagramGadd9Gadd9/B chord diagramBB  Am9 chord diagramAm9Am9/C chord diagramCC   E chord diagramEE
Don't try and tell me what to do
    Am chord diagramAmAm   Gadd9 chord diagramGadd9Gadd9/B chord diagramBB   E chord diagramEE
By then I will be gone

      Am chord diagramAmAm     Gadd9 chord diagramGadd9Gadd9/B chord diagramBB    Am9 chord diagramAm9Am9/C chord diagramCC   E chord diagramEE
Don't try and break the news to me
      Am chord diagramAmAm        Gadd9 chord diagramGadd9Gadd9/B chord diagramBB E chord diagramEE
Don't say what's going on
      Am chord diagramAmAm     Gadd9 chord diagramGadd9Gadd9/B chord diagramBB  Am9 chord diagramAm9Am9/C chord diagramCC   E chord diagramEE
Don't try and tell me what to do
    Am chord diagramAmAm   Gadd9 chord diagramGadd9Gadd9/B chord diagramBB   E chord diagramEE
By then I will be gone

Almost there ...

Sign in to get your own page with links to favourite songs and more. You are just one click away...

Login with Facebook Login with Google