Log in

One click and you are in

Login with Facebook Login with Google

Why sign up and log in

Guitar Tabs Explorer
The Supervillains bass tabs for Moonshine

Bass tabs

------------------------------------------------------------------------------
			   Moonshine - The Supervillains
------------------------------------------------------------------------------
Tuning: EADG

This is pretty simple song, consisting of two parts an A section and a B section. It’s
with a jazzy feel.I'm not going to tab out all of the fills, because they’re pretty
and just make things confusing. Just figure them out by ear.


A section

G|-8--------9---10--------------------|
D|--8------9------10------8-----------|
A|---6----7---------8----8------------|
E|----------------------6-------------|


B section

G|---------------------------------------------------------------------------|
D|-------------2-5-2------------2-5-2------------2-5-------------------------|
A|-----3-----3-----------3----3-------------3---3---2-----1-1-1-2-2-2-1------|
E|-1-4---4-----------1-4---4------------1-4--4-------------------------------|


Thats the two sections to the song. Feel free to improvise, especially if playing with
people rather than playing to a recording.


| / slide up
| \ slide down
| h hammer-on
| p pull-off
| ~ vibrato
| + harmonic
| x Mute note

Almost there ...

Sign in to get your own page with links to favourite songs and more. You are just one click away...

Login with Facebook Login with Google