Log in

One click and you are in

Login with Facebook Login with Google

Why sign up and log in

Guitar Tabs Explorer
Supertramp bass tabs for Hide in your shell

Bass tabs

  • Tuning: Standard tuning
  • Difficulty: Intermediate
-------------------------------------------------------------------
              Artist - Supertramp
              *********************
             Song - Hide In Your Shell
             ***************************
           Album - Crime Of The Century (1974)
          **************************************
              Tabbed By - Ayreon77
             **********************
-------------------------------------------------------------------

Tuning = Standard

No Bass until Chorus

-----------------------------
00:53

CHORUS
*******
G|--------------------------------|--------------------------------|
D|--------------------------------|--------------------------------|
A|-3-5~~~--3-5~~~--3-5~~~--3-5~~~-|-3-5~~~--3-5~~~--3-5~~~--3-5~~~-|
E|--------------------------------|--------------------------------|


01:11
G|--------------------------------|
D|-----------------5-6~~~--5-6~~~-|
A|---6~~~--5-6~~~-----------------|
E|-6------------------------------|

01:20
G|-----------------------------|----------------------------|
D|---3--3-3--1-2-3-3-1-0-------|-3-3---3--1-2-3-3-1-0-------|
A|-3---------------------3-0---|-----3----------------3-0---|
E|---------------------------3-|--------------------------3-|

G|----------------------------|--------------0-1-2----|
D|-3-3---3--1-2-3-3-1-0-------|--------1-2-3--------3-|
A|-----3----------------3-0---|-----------------------|
E|--------------------------3-|-1-1--1----------------|


-----------------------------
01:37

BRIDGE
*******
G|-------------------------|-------------------------|-----------------------------------------------------|
D|-------------------------|-------------------------|-----------------------------------------------------|
A|-5~~-5--5--5-------------|-5~~-5--5--5-------------|---3--3--3--3--------------------------------------s-|
E|-------------3~~-3--3--3-|-------------3~~-3--3--3-|-3------------6--6--6--6-4--4--4--4-1-1-1-1-1-1-1-1\-|

01:54
G|-------------------------|-------------------------|------------------------------------|
D|-------------------------|-------------------------|------------------------------------|
A|-5~~-5--5--5-------------|-5~~-5--5--5-------------|---3--3--3--3-----------------------|
E|-------------3~~-3--3--3-|-------------3~~-3--3--3-|-3------------6--6--6--6-4--4--4--4-|

02:10
G|----------------|----------------|-------------------|
D|--------s-------|--------s-------|--------s------3~~-|
A|-------3\5-3--s-|-------3\5-3--s-|-------3\5-3-------|
E|-1-1-1-------5\-|-1-1-1-------5\-|-1-1-1-------5-----|


-----------------------------
02:18

BREAK - No Bass
******

-----------------------------
02:36

VERSE 2 - No Bass
********

-----------------------------
03:10

CHORUS
*******
G|--------------------------------|--------------------------------|
D|--------------------------------|--------------------------------|
A|-3-5~~~--3-5~~~--3-5~~~--3-5~~~-|-3-5~~~--3-5~~~--3-5~~~--3-5~~~-|
E|--------------------------------|--------------------------------|

03:27
G|--------------------------------|
D|-----------------5-6~~~--5-6~~~-|
A|---6~~~--5-6~~~-----------------|
E|-6------------------------------|

03:36
G|-----------------------------|----------------------------|
D|---3--3-3--1-2-3-3-1-0-------|-3-3---3--1-2-3-3-1-0-------|
A|-3---------------------3-0---|-----3----------------3-0---|
E|---------------------------3-|--------------------------3-|


G|----------------------------|--------------------------|
D|-3-3---3--1-2-3-3-1-0-------|--------1-2-3-------3---3-|
A|-----3----------------3-0---|----------------------5---|
E|--------------------------3-|-1-1--1-------3-2-1-------|


-----------------------------
03:54

BRIDGE
*******
G|-------------------------|-------------------------|-----------------------------------------------------|
D|-------------------------|-------------------------|-----------------------------------------------------|
A|-5~~-5--5--5-------------|-5~~-5--5--5-------------|---3--3--3--3--------------------------------------s-|
E|-------------3~~-3--3--3-|-------------3~~-3--3--3-|-3------------6--6--6--6-4--4--4--4-1-1-1-1-1-1-1-1\-|

04:11
G|-------------------------|-------------------------|------------------------------------|-------|
D|-------------------------|-------------------------|------------------------------------|-------|
A|-5~~-5--5--5-------------|-5~~-5--5--5-------------|---3--3--3--3-----------------------|-------|
E|-------------3~~-3--3--3-|-------------3~~-3--3--3-|-3------------6--6--6--6-4--4--4--4-|-1~~~~-|


-----------------------------
04:51

OUTRO
******
G|-----------------|-----------------|-------------|-------------|-------------|
D|-----------------|-----------------|-------------|-------------|-------------|
A|--s--8--8--s-----|--s--8--8--s-----|--s--8--8--s-|--s--8--8--s-|--s--8--8--s-|
E|-3\8------8\-1~~-|-3\8------8\-1~~-|-3\8------8\-|-3\8------8\-|-3\8------8\-|

05:08
G|-----------------|-------------|-------------|-------------|-------------|
D|-----------------|-------------|-------------|-------------|-------------|
A|--s--8--8--s-----|--s--8--8--s-|--s--8--8--s-|--s--8--8--s-|--s--8--8--s-|
E|-3\8------8\-1~~-|-3\8------8\-|-3\8------8\-|-3\8------8\-|-3\8------8\-|

05:20
G|-------------|-------------|-------------|-------------|
D|-------------|-------------|-------------|-------------|
A|--s--8--8--s-|--s--8--8--s-|--s--8--8--s-|--s--8--8--s-|
E|-3\8------8\-|-3\8------8\-|-3\8------8\-|-3\8------8\-|

05:28
G|-------------|-------------|-------------|-------------|-------------|
D|-------------|-------------|-------------|-------------|-------------|
A|--s--8--8--s-|--s--8--8--s-|--s--8--8--s-|--s--8--8--s-|--s--8--8--s-|
E|-3\8------8\-|-3\8------8\-|-3\8------8\-|-3\8------8\-|-3\8------8\-|


05:40      Repeat this 4 times and fade out..........................................................
G|-----------------------|-------------------------|-------------------------------------------------------|
D|-----------------------|-------------------------|-------------------------------6-5---3-3-3-3-3-3-3-3---|
A|-5---3-5---------------|---5---3-5---------------|---3--3--3--3--------------3-6-----6-----------------3-|
E|---5------5-4-3--3--3--|-3---5------5-4-3--3--3--|-3------------6--6--6--6-4-----------------------------|


ENJOY...........

Almost there ...

Sign in to get your own page with links to favourite songs and more. You are just one click away...

Login with Facebook Login with Google