Log in

One click and you are in

Login with Facebook Login with Google

Why sign up and log in

Guitar Tabs Explorer
Sunrise Avenue tabs for Not again

Guitar tabs

E-A-D-G-B-E


Intro (Distortion)

|----------------------------------------------------------------|
|----------------------------------------------------------------|
|-55--555--555--555--555--555--555--555--5--444444333333444444---|
|-55--555--555--555--555--555--555--555--5-----------------------|
|-33--333--333--333--333--333--333--333--3-----------------------|
|----------------------------------------------------------------|
Verse


Chorus

|------------------------------------------------------------------|
|------------------------------------------------------------------|
|-8888888888888888-------------------------------------------------|
|-8888888888888888888888888888888855555555555555556666666666666666-|
|-6666666666666666888888888888888855555555555555556666666666666666-|
|-----------------666666666666666633333333333333334444444444444444-|


|------------------------------------------------------------------|
|------------------------------------------------------------------|
|-8888888888888888-------------------------------------------------|
|-888888888888888888888888888888885555555555555555666---666--------|
|-666666666666666688888888888888885555555555555555666---666--------|
|-----------------66666666666666663333333333333333444---444--------|


Repeat the Chorus

After the Chorus play this:

|------------------------------------------------------------------|
|------------------------------------------------------------------|
|------------------------------------------------------------------|
|-1010--101010--101010--1010-9-8-7-66---666---666---666------------|
|-1010--101010--101010--1010-9-8-7-66---666---666---666------------|
|-8-8---8-8-8---8-8-8---8-8--7-6-5-44---444---444---444------------|


Verse


Chorus

|------------------------------------------------------------------|
|------------------------------------------------------------------|
|-8888888888888888-------------------------------------------------|
|-8888888888888888888888888888888855555555555555556666666666666666-|
|-6666666666666666888888888888888855555555555555556666666666666666-|
|-----------------666666666666666633333333333333334444444444444444-|


|------------------------------------------------------------------|
|------------------------------------------------------------------|
|-8888888888888888-------------------------------------------------|
|-888888888888888888888888888888885555555555555555666---666--------|
|-666666666666666688888888888888885555555555555555666---666--------|
|-----------------66666666666666663333333333333333444---444--------|


Repeat the Chorus


After the Breakdown it starts with this:

|---------------------------|
|---------------------------|
|---------------------------|
|--666---666---666---666----|
|--666---666---666---666----|
|--444---444---444---444----|


Chorus

|------------------------------------------------------------------|
|------------------------------------------------------------------|
|-8888888888888888-------------------------------------------------|
|-8888888888888888888888888888888855555555555555556666666666666666-|
|-6666666666666666888888888888888855555555555555556666666666666666-|
|-----------------666666666666666633333333333333334444444444444444-|


|------------------------------------------------------------------|
|------------------------------------------------------------------|
|-8888888888888888-------------------------------------------------|
|-888888888888888888888888888888885555555555555555666---666--------|
|-666666666666666688888888888888885555555555555555666---666--------|
|-----------------66666666666666663333333333333333444---444--------|


Repeat until end!

Almost there ...

Sign in to get your own page with links to favourite songs and more. You are just one click away...

Login with Facebook Login with Google