Log in

One click and you are in

Login with Facebook Login with Google

Why sign up and log in

Guitar Tabs Explorer
The Sundays bass tabs for Joy

Bass tabs

Paul Brindley 1989

G|--11h12p11-----------------|
D|------------14--12--12-12--|
A|---------------------------|
E|---------------------------|
x20

G|----------------------------|
D|--11h12p11h12p11h12--12-12--|
A|----------------------------|
E|----------------------------|
x4

G|--11h12p11-----------------|
D|------------14--12--12-12--|
A|---------------------------|
E|---------------------------|
x16

G|----------------------------|
D|--11h12p11h12p11h12--12-12--|
A|----------------------------|
E|----------------------------|
x4

************************************

| h  Hammer-on
| p  Pull-off
ⓘ Bass guitar tab for 'Joy' by The Sundays, an alternative rock band formed in 1987 from London, England. They are no longer active.

Almost there ...

Sign in to get your own page with links to favourite songs and more. You are just one click away...

Login with Facebook Login with Google