Log in

One click and you are in

Login with Facebook Login with Google

Why sign up and log in

Guitar Tabs Explorer
The Sundays bass tabs for A certain someone

Bass tabs

Intro: (This repeats for the majority of the Song)

G|-------------------------|
D|----2-2-2----------------| x8
A|----------0--4/5/4-------|
E|-------------------------|


Verse 1:
Live your life, have your say
G|-------------------------|
D|----2-2-2----------------| x16
A|----------0--4/5/4-------|
E|-------------------------|

And I said, "Oh no"
G|-----------------|
D|-----------------|
A|---4-----5-------|
E|-----------------|

Live your life, stake your claim
G|-------------------------|
D|----2-2-2----------------| x8
A|----------0--4/5/4-------|
E|-------------------------|

Ooh, and I said, "Oh, no, no"
G|-----------------|
D|-----------------|
A|---4-----5-------|
E|-----------------|

(Instrumental) If I could have anything in the world
G|-------------------------|
D|----2-2-2----------------| x8
A|----------0--4/5/4-------|
E|-------------------------|

Ohh Ahh
G|-----------------|
D|-----------------|
A|---4-----5-------|
E|-----------------|

Chorus:
   You're too twisted by half
G|----------------------------|
D|------2--4/5-------2--0-----| x4
A|----2------------2----------|
E|--0------------0------------|

Verse 2: - same as verse 1, listen for the change to A- 4-5


Chorus:
   You're too twisted by half
G|----------------------------|
D|------2--4/5-------2--0-----| x4
A|----2------------2----------|
E|--0------------0------------|


Repeat the main bass line for last verse


Chorus:
   You're too twisted by half
G|----------------------------|
D|------2--4/5-------2--0-----| x4
A|----2------------2----------|
E|--0------------0------------|

G|-----------------------|
D|-----------------------|
A|---4-4-4-4----5-5-5-5--|
E|-----------------------|

G|----------------------------|
D|------2--4/5-------2--0-----| x4
A|----2------------2----------|
E|--0------------0------------|

G|-----------------------|
D|-----------------------|
A|---4-4-4-4----5-5-5-5--|
E|-----------------------|

Take a swim round
G|-------------------------|
D|----2-2-2----------------| x8
A|----------0--4/5/4-------|
E|-------------------------|

G|-------------------------|
D|-----------------------2-|
A|---4-4-4-4----5-5-5-5----|
E|-------------------------|
☠☠☠☠☠☠☠☠☠☠☠☠☠☠☠☠☠☠☠☠☠☠☠☠☠☠☠☠☠☠☠☠☠☠*


| /  Slide up
| \  Slide down

☠☠☠☠☠☠☠☠☠☠☠☠☠☠☠☠☠☠☠☠☠☠☠☠☠☠☠☠☠☠☠☠☠☠☠☠

Almost there ...

Sign in to get your own page with links to favourite songs and more. You are just one click away...

Login with Facebook Login with Google