Log in

One click and you are in

Login with Facebook Login with Google

Why sign up and log in

Guitar Tabs Explorer
The Summer Set tabs for Young

Guitar tabs

Band:   The Summer Set
Album:  Love Like This

Gooooood song :)
Intro/Verse
-------------------------------------------|
-------------------------------------------|
--44444444------------55555555-------------|
--44444444--33333333--55555555--55555555---|
--22222222--33333333--33333333--55555555---|
------------11111111------------33333333---|


Pre Chorus
--------------------------------|
--------------------------------|
--------------------------------|
--3~--------5~------------------|
--3~--------5~------------------|
--1~--------3~------------------|


Chorus
----------------------------------------|
----------------------------------------|
--55555555------------------------------|
--55555555--55555555--3333333333333333--|
--33333333--55555555--3333333333333333--|
------------33333333--1111111111111111--| x2

-----------------------------------|
-----------------------------------|
--4-4-------5-5--------------------|
--4-4--3-3--5-5--5-5---------------|
--2-4--3-3--3-3--5-5---------------|
-------1-1-------3-3---------------|


Bridge
-----------------------------------|
-----------------------------------|
--5~------4~-----------------------|
--5~--5~--4~-----------------------|
--3~--5~--2~-----------------------|
------3~---------------------------|

Other versions of Young

Young acousticChords

Almost there ...

Sign in to get your own page with links to favourite songs and more. You are just one click away...

Login with Facebook Login with Google