Log in

One click and you are in

Login with Facebook Login with Google

Why sign up and log in

Guitar Tabs Explorer
Suicide Silence bass tabs for Smoke

Bass tabs

+++++++++++++++++++++++
|Suicide Silence-Smoke|
+++++++++++++++++++++++


Tuning: Drop A (AEAD)

D|-----------------|-----------------|-----------------|-----------------|
A|-----------------|-----------------|-----------------|-----------------|
E|-----------------|-----------------|-----------------|-----------------|
A|-0000-0000000000-|-0000-0000000000-|-0000-0000000000-|-0000-0000000000-|

|-----------------|-----------------|-----------------|-----------------|
|-----------------|-----------------|-----------------|-----------------|
|-----------------|-----------------|-----------------|-----------------|
|-0000-0000000000-|-0000-0000000000-|-0000-0000000000-|-0000-0000000000-|

|-----------------|
|-----------------|
|-----------------|
|-0000-0000000000-|

|-----------|
|-----------|
|-----------|
|--------0x-|

|---------------|---------------]
|---------------|---------------|
|-3-3-3-1-1-1---|-3-3-3-1-1-1---|
|-------------0-|-------------0-|

|------------------------|------------------------|
|------------------------|------------------------|
|-3-3-3-1-1-1------------|-3-3-3-1-1-1------------|
|-------------0-1-00-1-0-|-------------0-1-00-1-0-|

|------------------------|------------------------|
|------------------------|------------------------|
|-3-3-3-1-1-1------------|-3-3-3-1-1-1------------|
|-------------0-1-00-1-0-|-------------0-1-00-1-0-|

|----------------------------|----------------------------|
|-3-3-3-3-3-3-3-3------------|-3-3-3-3-3-3-3-3------------|
|----------------------------|----------------------------|
|-----------------0-1-00-1-0-|-----------------0-1-00-1-0-|

|----------------------------|------------------------|
|-3-3-3-3-3-3-3-3------------|-3-3-3-3-3-3-3-3--------|
|----------------------------|------------------------|
|-----------------0-1-00-1-0-|-----------------0-/12\-|

|------------------------|------------------------|
|------------------------|------------------------|
|-3-3-3-1-1-1------------|-3-3-3-1-1-1------------|
|-------------0-1-00-1-0-|-------------0-1-00-1-0-|

|------------------------|------------------------|
|------------------------|------------------------|
|-3-3-3-1-1-1------------|-3-3-3-1-1-1------------|
|-------------0-1-00-1-0-|-------------0-1-00-1-0-|

|-----------------|-----------------|-----------------|-----------------|
|-----------------|-----------------|-----------------|-----------------|
|-----------------|-----------------|-----------------|-----------------|
|-1111-1111111111-|-1111-1111111111-|-1111-1111111111-|-1111-1111111111-|

|----------------|----------------|----------------|----------------|
|----------------|----------------|----------------|----------------|
|----------------|----------------|----------------|----------------|
|-3-1-1111-11111-|-3-1-1111-11111-|-3-1-1111-11111-|-3-1-1111-11111-|

|----------------|----------------|----------------|----------------|
|----------------|----------------|----------------|----------------|
|----------------|----------------|----------------|----------------|
|-3-1-1111-11111-|-3-1-1111-11111-|-3-1-1111-11111-|-3-1-1111-11111-|

|---------------|---------------|---------------|---------------|
|---------------|---------------|---------------|---------------|
|-3-3-3-1-1-1---|-3-3-3-1-1-1---|-3-3-3-1-1-1---|-3-3-3-1-1-1---|
|-------------0-|-------------0-|-------------0-|-------------0-|

|------------------------|------------------------|
|------------------------|------------------------|
|-3-3-3-1-1-1------------|-3-3-3-1-1-1------------|
|-------------0-1-00-1-0-|-------------0-1-00-1-0-|

|------------------------|------------------------|
|------------------------|------------------------|
|-3-3-3-1-1-1------------|-3-3-3-1-1-1------------|
|-------------0-1-00-1-0-|-------------0-1-00-1-0-|

|----------------------------|----------------------------|
|-3-3-3-3-3-3-3-3------------|-3-3-3-3-3-3-3-3------------|
|----------------------------|----------------------------|
|-----------------0-1-00-1-0-|-----------------0-1-00-1-0-|

|----------------------------|------------------------|
|-3-3-3-3-3-3-3-3------------|-3-3-3-3-3-3-3-3--------|
|----------------------------|------------------------|
|-----------------0-1-00-1-0-|-----------------0-/12\-|

|---------------------------------|
|---------------------------------|
|---------------------------------|
|-0-1-0-1-0-1-0-1-0-1-0-1-0-1-0-1-|

|---------------------------------|
|---------------------------------|
|---------------------------------|
|-0-1-0-1-0-1-0-1-0-1-0-1-0-1-0-1-|

|-----------------|-----------------|-----------------|-----------------|
|-----------------|-----------------|-----------------|-----------------|
|-----------------|-----------------|-----------------|-----------------|
|-1111-1111111111-|-1111-1111111111-|-1111-1111111111-|-1111-1111111111-|

|-----------------|-----------------|-------------------|-----------------|
|-----------------|-----------------|-------------------|-----------------|
|-----------------|-----------------|-------------------|-----------------|
|-1~--------------|-1~--------------|-001~--------------|-1~--------------|

|----------------|----------------|----------------|----------------|
|----------------|----------------|----------------|----------------|
|----------------|----------------|----------------|----------------|
|-3-1-1111-11111-|-3-1-1111-11111-|-3-1-1111-11111-|-3-1-1111-11111-|

|---------------|---------------|---------------|---------------|
|---------------|---------------|---------------|---------------|
|---------------|---------------|---------------|---------------|
|-11-1111-11111-|-11-1111-11111-|-11-1111-11111-|-11-1111-11111-|

|--------------|
|--------------|
|--------------|
|-11-1111-1111-|

Smoke
Lyrics:
Lifting the weight of the world,
So take this lung of pure inspiration,
Inhale this lung full to make me smile,
And then we'll talk up a real conversation,
So take this lung full become more interesting,

How in your head,
The thoughts that you see,
Are depicted,
So marvelously

So now you see that the wieght has lifted,
And all your thoughts start to move fluently,
I want to know what it is that you see,
depicted so gloriously,

Burn it down,
Burn it down,
Burn it down,
Set yourself free,
Burn it down,

So now tell me what it is that you see,
Please tell me, describe it's beauty,
And then tell me what it is that you see,
depicted so marvelously,

In your own head,
Still haunted by me,
Still depicted so violently,

So burn them down,
Inhale this lung of pure inspiration,
And I promise that all your burden and worry will disappear,
In a lume of smoke,In a pume of smoke,

Burn it down,
Set yourself free.

_______________________________________________________________
That's it! Please Comment and Rate all my tabs!!
Corrections are welcome!!

+++++++
|Enjoy|

Almost there ...

Sign in to get your own page with links to favourite songs and more. You are just one click away...

Login with Facebook Login with Google