Log in

One click and you are in

Login with Facebook Login with Google

Why sign up and log in

Guitar Tabs Explorer
Suicide Silence bass tabs for Bludgeoned to death

Bludgeoned To Death bass tab - Suicide Silence

Suicide Silence bass tabs for Bludgeoned to death

Bass tabs

G:------------|-----------------------------------------------|
D:------------|-----------------------------------------------|
A:------------|-----------------------------------------------| repeat 4x
E:----------4-|---------------------------------3---4---------|
A:--0-4p2p1---|--221-221-221-221-221-221-221--1---1-----------|

G:-----------------------------------------------------------|
D:-----------------------------------------------------------|
A:-----------------------------------------------------------|
E:--------4-------4------------------------------------------|
A:--444-1---444-1----(guitars)---3~---2~---------------------|

G:-----------------------------------------------------------|
D:-----------------------------------------------------------|
A:-----------------------------------------------------------| repeat 3x
E:--------3-------2-------3----------------------------------| then...
A:--2-5-2---1-4-1---2-5-2---2-5-1-4--------------------------|

G:-----------------------------------------------------------|
D:-----------------------------------------------------------|
A:-----------------------------------------------------------|
E:--------3-------2-------3----------------------------------|
A:--2-5-2---1-4-1---2-5-2---2-5-1-2--------------------------|


DOCTORS WON'T BE ABLE TO RECOGNIZE YOUR FUCKING.....


G:-----------------------------------------------------------|
D:-----------------------------------------------------------|
A:-----------------------------------------------------------| repeat 4x
E:-----------------------------------------------------------|
A:--1~---1~---1~----1-1-1------------------------------------|
 FACE!!!!!!!

(Guitar Solo)

G:-----------------------------------------------------------|
D:-----------------------------------------------------------|
A:-----------------------------------------------------------| repeat 4x
E:----4-3---3-2---2------------------------------------------|
A:--5-----3-----2--------------------------------------------|

G:-----------------------------------------------------------|
D:-----------------------------------------------------------|
A:-----------------------------------------------------------|
E:------4~-3~-----3~-2~--------------------------------------|
A:--555-------333-------222-222------------------------------|

Sorry i cant remember the fast part it was hard to tell what it was just improv or something.

G:-----------------------------------------------------------|
D:-----------------------------------------------------------|
A:-----------------------------------------------------------|
E:-----------------------------------------------------------|
A:--1~-1~--1~1~--1~-1~--1~1~---------------------------------|

G:-----------------------------------------------------------|
D:-----------------------------------------------------------|
A:-----------------------------------------------------------|
E:------3-6-----2-5-----3-6-----2-5--------------------------|
A:--2-5-----1-4-----2-5-----1-4------------------------------|

Well thats it hope you enjoy it sorry about that one part in the middle. If you can

Almost there ...

Sign in to get your own page with links to favourite songs and more. You are just one click away...

Login with Facebook Login with Google