Log in

One click and you are in

Login with Facebook Login with Google

Why sign up and log in

Guitar Tabs Explorer
Sugr? bass tabs for Oh death

Bass tabs

Tuning: Drop D (D A D G)

🎸 Verse 1:

G|---------------------------------------------------------------|
D|-------------------------8-6-4-3-1-1-1-1-1-1-1-1-1-1-1-1-3-4-6-|
A|---------------------------------------------------------------|
D|-4-4-4-4-4-4-4-4-4-4-4-4---------------------------------------|
G|---------------------------------------------------------------|
D|-9-9-9-9-9-9-9-9-9-9-9-9-9-9-8-6-------------------------------|
A|---------------------------------4-4-4-4-4-4-4-4---------------|
D|---------------------------------------------------------------|

G|---------------------------------------------------------------|
D|-------------------------8-6-4-3-1-1-1-1-1-1-1-1-1-1-1-1-3-4-6-|
A|---------------------------------------------------------------|
D|-4-4-4-4-4-4-4-4-4-4-4-4---------------------------------------|

G|-------------------------------------------------------------------|
D|-9-9-9-9-9-9-9-9-9-9-9-9-9-9-8-6-11-11-11-11-11-11-11-11-----------|
A|-----------------------------------------------------------4-2-0---|
D|-----------------------------------------------------------------5-|


Pre 🎸 Chorus:

G|-------------------------------------------------------------------|
D|---------------------------------1-1-1-1-1-1-1-1-1-1-1-1-1-1-------|
A|-------------------------------3-----------------------------4-2-1-|
D|-4-4-4-4-4-4-4-4-4-4-4-4-4-6-8-------------------------------------|

G|-------------------------------------------------------------------|
D|-------------------------------------------------------------------|
A|-2-2-2-2-2-2-2-2-2-2-2-2-2---------4-4-4-4-4-4-4-4-4-4-4-4-4-------|
D|---------------------------9-8-6-4---------------------------9-8-6-|

G|-------------------------------------------------------------------|
D|---------------------------------1-1-1-1-1-1-1-1-1-1-1-1-1-1-------|
A|-------------------------------3-----------------------------4-2-1-|
D|-4-4-4-4-4-4-4-4-4-4-4-4-4-6-8-------------------------------------|

G|------------------------------------------------------------------|
D|------------------------------------------------------------------|
A|-2-2-2-2-2-2-2-2-2-2-2-2-2---------4-4-4-4-4-4-4-4-4-4-4-4--------|
D|---------------------------9-8-6-4--------------------------------|

🎸 Chorus:

G|-----------------------------------------------------------------|
D|-------------------------8-6-4-3-1-1-1-1-1-1-1-1-1-1-1-1-3-4-6---|
A|-----------------------------------------------------------------|
D|-4-4-4-4-4-4-4-4-4-4-4-4-----------------------------------------|

G|-----------------------------------------------------------------|
D|-9-9-9-9-9-9-9-9-9-9-9-9-9-9-8-6---------------------------------|
A|---------------------------------4-4-4-4-4-4-4-4-4-4-4-4-4-4-4-4-|
D|-----------------------------------------------------------------|

G|-----------------------------------------------------------------|
D|-------------------------8-6-4-3-1-1-1-1-1-1-1-1-1-1-1-1-3-4-6---|
A|-----------------------------------------------------------------|
D|-4-4-4-4-4-4-4-4-4-4-4-4-----------------------------------------|

G|-------------------------------------------------------------------------------|
D|-9-9-9-9-9-9-9-9-9-9-9-9-9-9-8-6-11-11-11-11-11-11-11-11-11-11-11-11-----------|
A|-----------------------------------------------------------------------4-2-0---|
D|-----------------------------------------------------------------------------5-|


Pre 🎸 Chorus:

G|-------------------------------------------------------------------|
D|---------------------------------1-1-1-1-1-1-1-1-1-1-1-1-1-1-------|
A|-------------------------------3-----------------------------4-2-1-|
D|-4-4-4-4-4-4-4-4-4-4-4-4-4-6-8-------------------------------------|

G|-------------------------------------------------------------------|
D|-------------------------------------------------------------------|
A|-2-2-2-2-2-2-2-2-2-2-2-2-2---------4-4-4-4-4-4-4-4-4-4-4-4-4-------|
D|---------------------------9-8-6-4---------------------------9-8-6-|

G|-------------------------------------------------------------------|
D|---------------------------------1-1-1-1-1-1-1-1-1-1-1-1-1-1-------|
A|-------------------------------3-----------------------------4-2-1-|
D|-4-4-4-4-4-4-4-4-4-4-4-4-4-6-8-------------------------------------|

G|------------------------------------------------------------------|
D|------------------------------------------------------------------|
A|-2-2-2-2-2-2-2-2-2-2-2-2-2---------4-4-4-4-4-4-4-4-4-4-4-4--------|
D|---------------------------9-8-6-4--------------------------------|


🎸 Chorus:

G|-----------------------------------------------------------------|
D|-------------------------------1-1-1-1-1-1-1-1-1-1-1-1-1-3-4-6---|
A|-----------------------------------------------------------------|
D|-----------------------------------------------------------------|

G|-----------------------------------------------------------------|
D|-9-9-9-9-9-9-9-9-9-9-9-9-9-9-8-6---------------------------------|
A|---------------------------------4-4-4-4-4-4-4-4-4-4-4-4-4-4-4-4-|
D|-----------------------------------------------------------------|

G|-----------------------------------------------------------------|
D|-------------------------8-6-4-3-1-1-1-1-1-1-1-1-1-1-1-1-3-4-6---|
A|-----------------------------------------------------------------|
D|-4-4-4-4-4-4-4-4-4-4-4-4-----------------------------------------|

G|-------------------------------------------------------------------------------|
D|-9-9-9-9-9-9-9-9-9-9-9-9-9-9-8-6-11-11-11-11-11-11-11-11-11-11-11-11-----------|
A|-----------------------------------------------------------------------4-2-0---|
D|-----------------------------------------------------------------------------5-|


🎸 Bridge:

G|-----------------------------------------------------------------|
D|-------------------------8-6-4-3-1-1-1-1-1-1-1-1-1-1-1-1-3-4-6---|
A|-----------------------------------------------------------------|
D|-4-4-4-4-4-4-4-4-4-4-4-4-----------------------------------------|

G|-----------------------------------------------------------------|
D|-9-9-9-9-9-9-9-9-9-9-9-9-9-9-8-6---------------------------------|
A|---------------------------------4-4-4-4-4-4-4-4-4-4-4-4-4-4-4-4-|
D|-----------------------------------------------------------------|

G|-----------------------------------------------------------------|
D|-------------------------8-6-4-3-1-1-1-1-1-1-1-1-1-1-1-1-3-4-6---|
A|-----------------------------------------------------------------|
D|-4-4-4-4-4-4-4-4-4-4-4-4-----------------------------------------|

G|-------------------------------------------------------------------------------|
D|-9-9-9-9-9-9-9-9-9-9-9-9-9-9-8-6-11-11-11-11-11-11-11-11-11-11-11-11-----------|
A|-----------------------------------------------------------------------4-2-0---|
D|-----------------------------------------------------------------------------5-|


🎸 Chorus:

G|-----------------------------------------------------------------|
D|-------------------------------1-1-1-1-1-1-1-1-1-1-1-1-1-3-4-6---|
A|-----------------------------------------------------------------|
D|-----------------------------------------------------------------|

G|-----------------------------------------------------------------|
D|-9-9-9-9-9-9-9-9-9-9-9-9-9-9-8-6---------------------------------|
A|---------------------------------4-4-4-4-4-4-4-4-4-4-4-4-4-4-4-4-|
D|-----------------------------------------------------------------|

G|-----------------------------------------------------------------|
D|-------------------------8-6-4-3-1-1-1-1-1-1-1-1-1-1-1-1-3-4-6---|
A|-----------------------------------------------------------------|
D|-4-4-4-4-4-4-4-4-4-4-4-4-----------------------------------------|

G|-------------------------------------------------------------------------------|
D|-9-9-9-9-9-9-9-9-9-9-9-9-9-9-8-6-11-11-11-11-11-11-11-11-11-11-11-11-----------|
A|-----------------------------------------------------------------------4-2-0---|
D|-----------------------------------------------------------------------------5-|

Almost there ...

Sign in to get your own page with links to favourite songs and more. You are just one click away...

Login with Facebook Login with Google