Log in

One click and you are in

Login with Facebook Login with Google

Why sign up and log in

Guitar Tabs Explorer
Sugarless Girl bass tabs for The mixtape wars

Bass tabs with lyrics

Tuning: Standard (E A D G)

♫ Intro: (0:00)

  1 + 2 + 3 + 4 +  1 + 2 + 3 + 4 +  1 + 2 + 3 + 4 +  1 + 2 + 3 + 4 +
G|-----------------|-----------------|-----------------|-----------------|
D|-----------------|-----------------|-----------------|-----------------|
A|-----------------|-----------------|-5-5-5-5-5-5-5-5\|-----------------| x2
E|-5-5-5-5-5-5-5-5-|-5-5-5-5-5-5-5-5-|-----------------|-2-2-2-2-2-2-2-2/|
Verse 1: (0:14, "if tonight's getting too long you can always go home...")

  1 + 2 + 3 + 4 +  1 + 2 + 3 + 4 +  1 + 2 + 3 + 4 +  1 + 2 + 3 + 4 +
G|-----------------|-----------------|-----------------|-----------------|
D|-----------------|-----------------|-----------------|-----------------|
A|-----------------|-----------------|-5-5-5-5-5-5-5-5\|-----------------| x2
E|-5-5-5-5-5-5-5-5-|-5-5-5-5-5-5-5-5-|-----------------|-2-2-2-2-2-2-2-2/|


♫ Verse 2: (0:28, "i'll show you a trick where i breathe in flames...")

  1 + 2 + 3 + 4 +  1 + 2 + 3 + 4 +  1 + 2 + 3 + 4 +  1 + 2 + 3 + 4 +
G|-----------------|-----------------|-----------------|-----------------|
D|-----------------|-----------------|-----------------|-----------------|
A|-----------------|-----------------|-5-5-5-5-5-5-5-5\|-----------------|
E|-5-5-5-5-5-5-5-5-|-5-5-5-5-5-5-5-5-|-----------------|-2-2-2-2-2-2-2-2/|

G|-----------------|-----------------|-----------------|-----------------|
D|-----------------|-----------------|-----------------|-----------------|
A|-----------------|-----------------|-5-5-5-5-5-5-5-5\|-------------.---|
E|-5-5-5-5-5-5-5-5-|-5-5-5-5-5-5-5-5-|-----------------|-2-2-2-2-2/7-7---|


♫ Pre-Chorus: (0:43, "now we play, pass the playlist back and forth...")

  1 + 2 + 3 + 4 +  1 + 2 + 3 + 4 +  1 + 2 + 3 + 4 +  1 + 2 + 3 + 4 +
G|-----------------|-----------------|-----------------|-----------------|
D|-----.-----.---.-|-----------------|-----.-----.---.-|-----------------|
A|-5-5-5-----5---5-|-----------5-5-5-|-2-2-2-----2---2-|-----------2-2-4-|
E|-----------------|-----------------|-----------------|-----------------|

G|-----------------|-----------------|-----------------|-----------------|
D|-----.-----.---.-|-----------------|-----.-----.---.-|-----------------|
A|-5-5-5-----5---5-|-----------5-5-5-|-2-2-2-----2---2-|-----------------|
E|-----------------|-----------------|-----------------|-----------------|

Chorus: (0:57, "now you'll speak through the soundtrack...")

  1 + 2 + 3 + 4 +  1 + 2 + 3 + 4 +  1 + 2 + 3 + 4 +  1 + 2 + 3 + 4 +
G|-----------------|-----------------|-----------------|-----------------|
D|-----------------|-----------------|-----------------|-----------------|
A|-5-5-5-5-5-5-5-5-|-7-7-7-7-7-7-7-7-|-----------------|-----------------|
E|-----------------|-----------------|-5-5-5-5-5-5-5-5-|-7-7-7-7-7-7-7-7-|

G|-----------------|-----------------|-----------------|-----------------|
D|-----------------|-----------------|-----------------|-----.-------.---|
A|-5-5-5-5-5-5-5-5-|-7-7-7-7-7-7-7-7-|-4-4-4-4-4-4-4-4-|-5-5-5---5-5-5---|
E|-----------------|-----------------|-----------------|-----------------|

  1 + 2 + 3 + 4 +  1 + 2 + 3 + 4 +  1 + 2 + 3 + 4 +  1 + 2 + 3 + 4 +
G|-----------------|-----------------|-----------------|-----------------|
D|-----------------|-----------------|-----------------|-----------------|
A|-----------------|-----------------|-5-5-5-5-5-5-5-5-|-7-7-7-7-7-7-7-7-|
E|-5-5-5-5-5-5-5-5-|-7-7-7-7-7-7-7-7-|-----------------|-----------------|


♫ Verse 3: (1:19, "you're dressed to the nines and i'm armed to the teeth...")

  1 + 2 + 3 + 4 +  1 + 2 + 3 + 4 +  1 + 2 + 3 + 4 +  1 + 2 + 3 + 4 +
G|-----------------|-----------------|-----------------|-----------------|
D|-----------------|-----------------|-----------------|-----------------|
A|-----------------|-----------------|-5-5-5-5-5-5-5-5\|-----------------| x2
E|-5-5-5-5-5-5-5-5-|-5-5-5-5-5-5-5-5-|-----------------|-2-2-2-2-2-2-2-2/|


♫ Verse 4: (1:34, "if tonight's getting too long you can always go home...")

  1 + 2 + 3 + 4 +  1 + 2 + 3 + 4 +  1 + 2 + 3 + 4 +  1 + 2 + 3 + 4 +
G|-----------------|-----------------|-----------------|-----------------|
D|-----------------|-----------------|-----------------|-----------------|
A|-----------------|-----------------|-5-5-5-5-5-5-5-5\|-----------------|
E|-5-5-5-5-5-5-5-5-|-5-5-5-5-5-5-5-5-|-----------------|-2-2-2-2-2-2-2-2/|

G|-----------------|-----------------|-----------------|-----------------|
D|-----------------|-----------------|-----------------|-----------------|
A|-----------------|-----------------|-5-5-5-5-5-5-5-5\|-------------.---|
E|-5-5-5-5-5-5-5-5-|-5-5-5-5-5-5-5-5-|-----------------|-2-2-2-2-2-2-7---|


♫ Pre-Chorus: (1:48, "now we play, pass the playlist back and forth...")

  1 + 2 + 3 + 4 +  1 + 2 + 3 + 4 +  1 + 2 + 3 + 4 +  1 + 2 + 3 + 4 +
G|-----------------|-----------------|-----------------|-----------------|
D|-----.-----.---.-|-----------------|-----.-----.---.-|-----------------|
A|-5-5-5-----5---5-|-----------5-5-5-|-2-2-2-----2---2-|-----------2-2-4-|
E|-----------------|-----------------|-----------------|-----------------|

G|-----------------|-----------------|-----------------|-----------------|
D|-----.-----.---.-|-----------------|-----.-----.---.-|-----------------|
A|-5-5-5-----5---5-|-----------5-5-5-|-2-2-2-----2---2-|-----------2-2-4-|
E|-----------------|-----------------|-----------------|-----------------|


♫ Chorus: (2:03, "now you'll speak through the soundtrack...")

  1 + 2 + 3 + 4 +  1 + 2 + 3 + 4 +  1 + 2 + 3 + 4 +  1 + 2 + 3 + 4 +
G|-----------------|-----------------|-----------------|-----------------|
D|-----------------|-----------------|-----------------|-----------------|
A|-5-5-5-5-5-5-5-5-|-7-7-7-7-7-7-7-7-|-----------------|-----------------|
E|-----------------|-----------------|-5-5-5-5-5-5-5-5-|-7-7-7-7-7-7-7-7-|

G|-----------------|-----------------|-----------------|-----------------|
D|-----------------|-----------------|-----------------|-----.-------.---|
A|-5-5-5-5-5-5-5-5-|-7-7-7-7-7-7-7-7-|-4-4-4-4-4-4-4-4-|-5-5-5---5-5-5---|
E|-----------------|-----------------|-----------------|-----------------|

  1 + 2 + 3 + 4 +  1 + 2 + 3 + 4 +  1 + 2 + 3 + 4 +  1 + 2 + 3 + 4 +
G|-----------------|-----------------|-----------------|-----------------|
D|-----------------|-----------------|-----------------|-----------------|
A|-----------------|-----------------|-5-5-5-5-5-5-5-5-|-7-7-7-7-7\------|
E|-5-5-5-5-5-5-5-5-|-7-7-7-7-7-7-7-7-|-----------------|-----------------|


♫ Chorus: (2:24, "it's time to speak past the soundtrack...")
(let all notes ring)

  1 + 2 + 3 + 4 +  1 + 2 + 3 + 4 +  1 + 2 + 3 + 4 +  1 + 2 + 3 + 4 +
G|-----------------|-----------------|-----------------|-----------------|
D|-------7-------7-|-------7-------7-|-------7-------7-|-------7-------7-|
A|-5-5-5-----5-5---|---5-5-----5-5---|-----------------|-----------------|
E|-----------------|-----------------|-7-7-7-----7-7---|-7-7-7-----7-7---|
                                       x2
G|-----------------|-----------------|-----------------|-----------------|
D|-------7-------7-|-------7-------7-|-------7-------7-|-------7-------7-|
A|-5-5-5-----5-5---|---5-5-----5-5---|-----------------|-----------------|
E|-----------------|-----------------|-7-7-7-----7-7---|---7-7-----7-7---|


♫ Outro: (2:53)
(let all notes ring)

  1 + 2 + 3 + 4 +  1 + 2 + 3 + 4 +  1 + 2 + 3 + 4 +  1 + 2 + 3 + 4 +
G|-----------------|-----------------|-----------------|-----------------|
D|-------7-------7-|-------7-------7-|-------7-------7-|-------7-------7-|
A|-5-5-5-----5-5---|---5-5-----5-5---|-----------------|-----------------|
E|-----------------|-----------------|-7-7-7-----7-7---|---7-7-----7-7---|

G|-----------------|-----------------|-----------------|-----------------|
D|-------7-------7-|-------7-------7-|-------7-------7-|-------7-------7-|
A|-5-5-5-----5-5---|---5-5-----5-5---|-----------------|-----------------|
E|-----------------|-----------------|-7-7-7-----7-7---|---7-7-----7-7---|

  1 + 2 + 3 + 4 +
G|-----------------|
D|-----.-----------|
A|-5-5-5-----------|
E|-----------------|


************************************

| .  Staccato
| /  Slide up
| \  Slide down

************************************

Almost there ...

Sign in to get your own page with links to favourite songs and more. You are just one click away...

Login with Facebook Login with Google