Search tabs and chords

Search for song, artist or band

Log in

One click and you are in

Login with Facebook Login with Google

Why sign up and log in

Guitar Tabs Explorer
Rebecca Sugar guitar tabs for Steven universe ending theme

Steven Universe Ending Theme tab by Rebecca Sugar

Rebecca Sugar guitar tabs for Steven universe ending theme

Guitar tabs

e|------------------11-11-----10------------13-13----13-15-13-11-10--13-11-10-8----9-8--------------|
B|-----11--------9---------11---11--11--12--------12----------------------------8------8------------|
G|-12----12--12--------------------------------------------------------------------------10--10--10-|
D|------------------10----------12--12------13------------------------------------------------------|
A|-------13--13--8---------10-----------11--------------------------------------10-------12--12-----|
E|-11---------------------------------------------------11----10-----11----10-8----------10---------|

e|-------15-----------------|
B|-10-13-13----------15-----|
G|-------14----------15-----|
D|-------------------13-----|
A|-----------13--14- 15-----|
E|--------------------------|

Almost there ...

Sign in to get your own page with links to favourite songs and more. You are just one click away...

Login with Facebook Login with Google