Guitar Tabs Explorer
Rebecca Sugar guitar tabs for Something entirely new

Something Entirely New tab


1.5 / 5 [2 votes]

Something Entirely New tab by Rebecca Sugar

Guitar tabs

Print
-------------------------------------------------------------------------------
                        Something Entirely New - Rebecca Sugar
-------------------------------------------------------------------------------
Tabbed by: nten17

Tuning:EADG

 G|------------------------|
 D|0-----------------------|
 A|--------3?0-------------|       x2
 E|----3-------------------|

Where did we go? What did we do?
It must have been something, entirely new.
And it wasn?t quite me and it wasn?t quite you.
I think we were someone entirely new.


G|-------------|
D|-------------|     x3
A|-1-2-3-0-----|
E|-------------|

I just can?t stop thinking?


G|-------------|
D|-------------|
A|-1-2-3-2-----|
E|-------------|

...and now you?re here forever


G|0-3-----------|
D|----0---------|
A|------3-------|
E|--------------|

what about you? what about me?
well you?re here too. we?re here together.


 G|-------------|
 D|--0---3-0----|
 A|----3--------|   [pause]
 E|3------------|

[humming ?stronger than you?]

G|-------------------------------------0---2---|
D|--0---3-0------0---0-1-0-----0---4---3-------|
A|----3------------3---------------------------|
E|3--------------------------------------------|

 G|----------------|
 D|--0?3---0-------|
 A|----3-----------|
 E|3---------------|

Other versions of Something Entirely New

Something entirely newChords
Something entirely new ukuleleChords
Something entirely newTabs

Comment this song and these guitar tabs

Do you have corrections, comments on the guitar tabs, thoughts about the song or a message to the author? Write them below.