Search tabs and chords

Search for song, artist or band

Log in

One click and you are in

Login with Facebook Login with Google

Why sign up and log in

Guitar Tabs Explorer
Rebecca Sugar guitar tabs for Peace and love on planet earth

Peace And Love On Planet Earth tab by Rebecca Sugar

Rebecca Sugar guitar tabs for Peace and love on planet earth

Guitar tabs

-------------------------------------------------------------------------------
                Peace and Love (On the Planet Earth) - Rebecca Sugar
-------------------------------------------------------------------------------
Tabbed by: nten17

Tuning:EADG
G|------------------------|
D|------------------------|
A|---3-0-2-------2---0----|
E|-1-----------0---3------|

Life and death and love and birth
and peace and love on the planet Earth.


G|-----------------------------|
D|-----------------------------|
A|-3-3-0-2??2---2---0----------|
E|-----------------3-----------|
we?ve all got something to fear. we all have got nowhere to go.


G|------------------------|
D|------------------------|
A|---3-0-2-------2---0----|
E|-1-----------0---3------|

Life and death and love and birth and...
peace and love on the planet Earth.

Other versions of Peace And Love On Planet Earth

Peace And Love on Planet EarthChords
Peace And Love on Planet Earth UkuleleChords
Peace And Love on Planet EarthTabs

Almost there ...

Sign in to get your own page with links to favourite songs and more. You are just one click away...

Login with Facebook Login with Google