Guitar Tabs Explorer
Rebecca Sugar guitar tabs for Night drive

Night Drive tab


Be the first to rate

Night Drive tab by Rebecca Sugar

Guitar tabs

Print

e|----------------------------------------------------|
B|----------6---------------------8-------------------|
G|-------7------7--------------8------8---------------|
D|----8------------8--------8------------8------------|
A|-6--------------------------------------------------|
E|-----------------------9----------------------------|

e|----------------------------------------------------|
B|----------6------------------6--7--6----------------|
G|-------5------5-----------8-----------8-------------|
D|----7------------7-----6----------------------------|
A|-8--------------------------------------------------|
E|----------------------------------------------------|

e|----------------------------------------------------|
B|----------8---------------------8-------------------|
G|-------7------7--------------8------8---------------|
D|-8---------------8--------8------------8------------|
A|----6-----------------------------------------------|
E|-----------------------9----------------------------|

e|-------------------------------------------------10-|
B|----------6---------------------6--7p6----------8---|
G|-------5------5-----------8--8----------8------8----|
D|----7------------7-----6-------------------9--8-----|
A|-8--------------------------------------------------|
E|----------------------------------------------------|


Esta me ha costado realmente, muy difícil de sacar de oído, y otro tanto de tocar pero
con un poco de
práctica les saldrá de manera fluida. Disfruten la canción.

Por cierto, esta pieza de música es parte de la banda sonora de SU, y es creación de
Aivi y Surasshu, no de Rebecca Sugar, pero yo lo pongo como tal para que sea mas

Comment this song and these guitar tabs

Do you have corrections, comments on the guitar tabs, thoughts about the song or a message to the author? Write them below.