Guitar Tabs Explorer
Rebecca Sugar guitar tabs for Lapis lazuli song

Lapis Lazuli Song tab


3.8 / 5 [13 votes]

Lapis Lazuli Song tab by Rebecca Sugar

Guitar tabs

Print

Am chord diagramAmAm
She was trapped in a mirror

        E chord diagramEE
And it couldn't be clearer

               F chord diagramFF
She wanted to leave this place

            E4 chord diagramE4E4/A chord diagramAA        E chord diagramEE
And get herself back in space


    Am chord diagramAmAm                          C chord diagramCC
And dad you might think she's a criminal

e|--------0-----------------0---0h1p0----------------|
B|--------1-----------------1----------1-------------|
G|-2------2-----------------0-------------0----------|
D|----2---2-----------------2------------------------|
A|--------0-----0--2--3-----3------------------------|
E|---------------------------------------------------|


         Dm chord diagramDmDm                        F chord diagramFF
But her friendship comes through subliminal

e|----------1------------------------------5---------|
B|-----3------3----------------------------6---------|
G|-------2------------------------5--------5---------|
D|--0------------------0--2--3--------3----3---------|
A|---------------------------------------------------|
E|---------------------------------------------------|


      C chord diagramCC     E chord diagramEE                   Am chord diagramAmAm            F chord diagramFF
Lapis Lazuli, you fled into the bottom of the sea

e|-------0-------------------------------------------|
B|-----1--------------------0------------------------|
G|---0-------0---0--------1---1----------------------|
D|-------------2--------2--------2p0-----------------|
A|-3------------------2------------------------------|
E|---------------------------------------------------|

e|-------0-------------------3-1-0-------------------|
B|-----1---1-------------1---------3-----------------|
G|---2-----------------------------------------------|
D|-------------0--2--3-----3-------------------------|
A|-0-------------------3-----------------------------|
E|---------------------------------------------------|



      C chord diagramCC     E chord diagramEE                               Am chord diagramAmAm             Fm chord diagramFmFm
Lapis Lazuli, you were so mad, but then you came around to me

e|-------0-------------------------------------------|
B|-----1----------------------0----------------------|
G|---0-------0---0--------1-----1--------------------|
D|-------------2--------2---2-----2p0----------------|
A|-3------------------2------------------------------|
E|---------------------------------------------------|

e|---------0----------1------------------------------|
B|-------1---1--------1------------------------------|
G|-----2-------2-0----1------------------------------|
D|---2----------------3------------------------------|
A|-0------------------3------------------------------|
E|--------------------1------------------------------|

Sharpening the ear to the top :D chord diagramDD

Enjoy the song

Other versions of Lapis Lazuli Song

Lapis lazuli songChords