Guitar Tabs Explorer
Rebecca Sugar guitar tabs for I could never be ready

I Could Never Be Ready tab


4.3 / 5 [4 votes]

I Could Never Be Ready tab by Rebecca Sugar

Guitar tabs with lyrics

Print

Steven Universe| I Could Never Be Ready| Cartoon Network: https://www.youtube.com/watch?v=UtM6d2fpeso
Standard EADGBe tuning.
Slow tempo

  Intro:                              Verse 1:
e|--------|2-------|1-------|--------||--------|2--2----|1--1----|--------|
B|2-------|3-------|3-------|2-------||2--2----|3--3-3--|3--3-3--|2--2----|
G|2-------|2-------|2-------|2-------||2--2----|2--2----|2--2--2-|2--2-2--|
D|2-------|--------|--------|2-------||2--2--2-|--------|--------|2--2--2-|
A|--------|--------|--------|--------||--------|--------|--------|--------|
E|--------|--------|--------|--------||--------|--------|--------|--------|
  I could |I could |I could |ready   ||I could |I could |I could |ready   |
  never be|never be|never be|for this||never be|never be|never be|for this|

  Verse 2:                            Verse 3:
e|--------|2--2----|1--1----|2--2----||--------|2--2----|1--1----|--------|
B|2--2----|3--3-3--|3--3-3--|1--1-1--||2--2----|3--3-3--|3--3-3--|2-------|
G|2--2-2--|2--2--2-|2--2--2-|2--2--2-||2--2-2--|2--2--2-|2--2--2-|2-------|
D|2--2--2-|--------|--------|--------||2--2--2-|--------|--------|2-------|
A|--------|--------|--------|--------||--------|--------|--------|--------|
E|--------|--------|--------|--------||--------|--------|--------|--------|
  things  |things  |isn't it|theory, ||I could |I could |I could |ready.  |
  start,  |end,    |lovely  |but...  ||never be|never be|never be|
  and     |and     |in      |

  Outro:
e|9--9----|4--4----|--------|3-------||9--9----|4--4----|-----4/5|--------|
B|7--7-7--|3--3-3--|2-------|2-------||7--7-7--|3--3-3--|2-------|--------|
G|7--7--7-|3--3--3-|2-------|2-------||7--7--7-|3--3--3-|2-------|--------|
D|7--7----|3--3----|2-------|2-------||7--7----|3--3----|2-------|--------|
A|--------|--------|--------|--------||--------|--------|--------|--------|
E|--------|--------|--------|--------||--------|--------|--------|--------|
                                       rit
e|9--9----|0--0-0--|----0----|3-------||9--9----|4--4----|--------|--------|
B|7--7-7--|0--0--0-|----0----|2-------||7--7-7--|3--3-3--|2-------|--------|
G|7--7--7-|1--1----|----2----|2-------||7--7--7-|3--3--3-|2-------|--------|
D|7--7----|2--2----|--2-2----|2-------||7--7----|3--3----|2-------|--------|
A|--------|--------|0---0----|--------||--------|--------|--------|--------|
E|--------|--------|---------|--------||--------|--------|--------|--------|



Each "-" in the tab = 1/8 beat.
Example of the down beat and up beat: 1&2&3&4&
                                      v^v^v^v^
                                      -------- <- tab line
******************************

| /     slide up
| rit   ritardando (slow down)

******************************

Other versions of I Could Never Be Ready

I could never be readyChords