Guitar Tabs Explorer
Rebecca Sugar guitar tabs for Here comes a thought

Here Comes A Thought tab


4.5 / 5 [8 votes]

Here Comes A Thought tab by Rebecca Sugar

Guitar tabs with lyrics

Print

[Intro]
"Take a moment to think of just, flexibility, love and trust"
e|---------------------------------------------------------------------------|
B|---------------------------------------------------------------------------|
G|-9-9-9-9-12-9-----------------------9-9-9-9-12-9---------------------------|
D|---------------12-12------------------------------12-12--------------------|
A|---------------------------------------------------------------------------|
E|---------------------------------------------------------------------------|

"Take a moment to think of just, flexibility, love and trust"
e|---------------------------------------------------------------------------|
B|---------------------------------------------------------------------------|
G|-9-9-9-9-12-9-----------------------9-9-9-9-12-9---------------------------|
D|---------------12-12------------------------------12-12--------------------|
A|---------------------------------------------------------------------------|
E|---------------------------------------------------------------------------|

[Verse 1]
"Here comes a thought, that might alarm you..."
e|---------------------------------------------------------------------------|
B|---------------------------------------------------------------------------|
G|-----------------------------9-----------9---------------------------------|
D|-12-10-9------12-10-9----9-----12-10-9-----12-10-9-10----------------------|
A|---------12-----------12---------------------------------------------------|
E|---------------------------------------------------------------------------|

"Something you did, that failed to be charming..."
e|---------------------------------------------------------------------------|
B|---------------------------------------------------------------------------|
G|-----------------------------------9--------------9------------------------|
D|-12-10-9---------12-10-9----9--------12-10-9--------12-10-9-10-------------|
A|---------12---10---------12--------------------10--------------------------|
E|---------------------------------------------------------------------------|

[Pre-Chorus]
"And oh, you're losing sight, you're losing touch..."
e|-------------------------------------10------------------------------------|
B|------------10-12---------10-12-12------13-12-10-13---10-12-13-12-10-------|
G|----12---12-------12---12-------------------------------------------10-----|
D|---------------------------------------------------------------------------|
A|-10------------------------------------------------------------------------|
E|---------------------------------------------------------------------------|

"That they confuse you, that I might lose you"
e|---------------------------------------------------------------------------|
B|-13-10----------------13-10------------------------------------------------|
G|-------10-9-----------------10-9-------------------------------------------|
D|------------12-------------------12----------------------------------------|
A|---------------------------------------------------------------------------|
E|---------------------------------------------------------------------------|

[Chorus]
"Take a moment, remind yourself to, take a moment and find yourself"
e|---------------------------------------------------------------------------|
B|---------------------------------------------------------------------------|
G|-9-9-9-9-12-9-----------------------9-9-9-9-12-9---------------------------|
D|---------------12-12------------------------------12-12--------------------|
A|-----------------------10--------------------------------------------------|
E|---------------------------------------------------------------------------|

"Take a moment to ask yourself if, this is how we fall apart"
e|---------------------------------------------------------------------------|
B|---------------------------------------------------------------------------|
G|-9-9-9-9-12-9-----------------9----9----9----------------------------------|
D|---------------12-12------------12---12---9-9------------------------------|
A|-----------------------10--------------------------------------------------|
E|---------------------------------------------------------------------------|

"But it's not, but it's not, but it's not, but it's not, but it's not"
e|---------------------------------------------------------------------------|
B|-13-13-13-12-12-12-10-10-10------------------------------------------------|
G|----------------------------12-12-12-9-------------------------------------|
D|---------------------------------------12-10-------------------------------|
A|---------------------------------------------------------------------------|
E|---------------------------------------------------------------------------|

"It's okay, it's okay, it's okay, it's okay, it's okay"
e|---------------------------------------------------------------------------|
B|-13-13-13-12-12-12-10-10-10------------------------------------------------|
G|----------------------------12-12-12-9-------------------------------------|
D|---------------------------------------12-10-------------------------------|
A|---------------------------------------------------------------------------|
E|---------------------------------------------------------------------------|

"You've got nothing, got nothing, got nothing, got nothing to fear"
e|---------------------------------------------------------------------------|
B|-13-13-13-12-12-12-10-10-10------------------------------------------------|
G|----------------------------12-12-12-9-------------------------------------|
D|---------------------------------------12-10-------------------------------|
A|---------------------------------------------------------------------------|
E|---------------------------------------------------------------------------|

"I'm here, I'm here, I'm here"
e|---------------------------------------------------------------------------|
B|---------------------------------------------------------------------------|
G|-12--------12--------12----------------------------------------------------|
D|------10--------10--------10-----------------------------------------------|
A|---------------------------------------------------------------------------|
E|---------------------------------------------------------------------------|

[Verse 2]
"Here comes a thought, that might alarm me..."
e|---------------------------------------------------------------------------|
B|---------------------------------------------------------------------------|
G|-----------------------------9-----------9---------------------------------|
D|-12-10-9------12-10-9----9-----12-10-9-----12-10-9-10----------------------|
A|---------12-----------12---------------------------------------------------|
E|---------------------------------------------------------------------------|

"Something I did, that failed to be charming..."
e|---------------------------------------------------------------------------|
B|---------------------------------------------------------------------------|
G|-----------------------------------9--------------9------------------------|
D|-12-10-9---------12-10-9----9--------12-10-9--------12-10-9-10-------------|
A|---------12---10---------12--------------------10--------------------------|
E|---------------------------------------------------------------------------|

[Pre-Chorus]
"And oh, I'm losing sight, I'm losing touch..."
e|-------------------------------------10------------------------------------|
B|------------10-12---------10-12-12------13-12-10-13---10-12-13-12-10-------|
G|----12---12-------12---12-------------------------------------------10-----|
D|---------------------------------------------------------------------------|
A|-10------------------------------------------------------------------------|
E|---------------------------------------------------------------------------|

"That they confuse me, that I might lose me"
e|---------------------------------------------------------------------------|
B|-13-10----------------13-10------------------------------------------------|
G|-------10-9-----------------10-9-------------------------------------------|
D|------------12-------------------12----------------------------------------|
A|---------------------------------------------------------------------------|
E|---------------------------------------------------------------------------|

[Chorus]
"Take a moment, remind yourself to, take a moment and find yourself"
e|---------------------------------------------------------------------------|
B|---------------------------------------------------------------------------|
G|-9-9-9-9-12-9-----------------------9-9-9-9-12-9---------------------------|
D|---------------12-12------------------------------12-12--------------------|
A|-----------------------10--------------------------------------------------|
E|---------------------------------------------------------------------------|

"Take a moment to ask yourself if, this is how we fall apart"
e|---------------------------------------------------------------------------|
B|---------------------------------------------------------------------------|
G|-9-9-9-9-12-9--------------------------------------------------------------|
D|---------------12-12----------9----9----9----------------------------------|
A|-----------------------10-------12---12---9-9------------------------------|
E|---------------------------------------------------------------------------|

"But it's not, but it's not, but it's not, but it's not, but it's not"
e|---------------------------------------------------------------------------|
B|-13-13-13-12-12-12-10-10-10------------------------------------------------|
G|----------------------------12-12-12-9-------------------------------------|
D|---------------------------------------12-10-------------------------------|
A|---------------------------------------------------------------------------|
E|---------------------------------------------------------------------------|

"It's okay, it's okay, it's okay, it's okay, it's okay"
e|---------------------------------------------------------------------------|
B|-13-13-13-12-12-12-10-10-10------------------------------------------------|
G|----------------------------12-12-12-9-------------------------------------|
D|---------------------------------------12-10-------------------------------|
A|---------------------------------------------------------------------------|
E|---------------------------------------------------------------------------|

"I've got nothing, got nothing, got nothing, got nothing to fear"
e|---------------------------------------------------------------------------|
B|-13-13-13-12-12-12-10-10-10------------------------------------------------|
G|----------------------------12-12-12-9-------------------------------------|
D|---------------------------------------12-10-------------------------------|
A|---------------------------------------------------------------------------|
E|---------------------------------------------------------------------------|

"I'm here, I'm here, I'm here"
e|---------------------------------------------------------------------------|
B|---------------------------------------------------------------------------|
G|-12--------12--------12----------------------------------------------------|
D|------10--------10--------10-----------------------------------------------|
A|---------------------------------------------------------------------------|
E|---------------------------------------------------------------------------|

"And it was just a thought, just a thought..."
e|---------------------------------------------------------------------------|
B|-13-13-13-12-12-12-10-10-10------------------------------------------------|
G|----------------------------12-12-12-9-------------------------------------|
D|---------------------------------------12-10-------------------------------|
A|---------------------------------------------------------------------------|
E|---------------------------------------------------------------------------|

"It's okay, it's okay, it's okay, it's okay, it's okay"
e|---------------------------------------------------------------------------|
B|-13-13-13-12-12-12-10-10-10------------------------------------------------|
G|----------------------------12-12-12-9-------------------------------------|
D|---------------------------------------12-10-------------------------------|
A|---------------------------------------------------------------------------|
E|---------------------------------------------------------------------------|

"We can watch, we can watch, we can watch, we can watch them go by"
e|---------------------------------------------------------------------------|
B|-13-13-13-12-12-12-10-10-10------------------------------------------------|
G|----------------------------12-12-12-9-------------------------------------|
D|---------------------------------------12-10-------------------------------|
A|---------------------------------------------------------------------------|
E|---------------------------------------------------------------------------|

"From here, from here, from here"
e|---------------------------------------------------------------------------|
B|---------------------------------------------------------------------------|
G|-12--------12--------12----------------------------------------------------|
D|------10--------10--------10-----------------------------------------------|
A|---------------------------------------------------------------------------|
E|---------------------------------------------------------------------------|

[Outro]
"Take a moment to think of just, flexibility, love and trust"
e|---------------------------------------------------------------------------|
B|---------------------------------------------------------------------------|
G|-9-9-9-9-12-9-----------------------9-9-9-9-12-9---------------------------|
D|---------------12-12------------------------------12-12--------------------|
A|---------------------------------------------------------------------------|
E|---------------------------------------------------------------------------|

"Take a moment to think of just, flexibility, love and trust"
e|---------------------------------------------------------------------------|
B|---------------------------------------------------------------------------|
G|-9-9-9-9-12-9-----------------------9-9-9-9-12-9---------------------------|
D|---------------12-12------------------------------12-12--------------------|
A|---------------------------------------------------------------------------|
E|---------------------------------------------------------------------------|

Other versions of Here Comes A Thought

Here comes a thoughtChords
Here comes a thought (Ver. 2)Chords