Search tabs and chords

Search for song, artist or band

Log in

One click and you are in

Login with Facebook Login with Google

Why sign up and log in

Guitar Tabs Explorer
Rebecca Sugar bass tabs for Here comes a thought

Bass tabs

Here comes a thought - Steven Universe
Rebecca Sugar

Intro:
   1 + 2 + 3 + 4 +   1 + 2 + 3 + 4 +
G|-----------------|-----------------|
D|-------------3---|-----------------|
A|---------------3-|-----------------| x2
E|-1---------------|-0---------------|

Verse:
   1 + 2 + 3 + 4 +   1 + 2 + 3 + 4 +   1 + 2 + 3 + 4 +    1 + 2 + 3 + 4 +
G|-----------------|-----------------|-----------5------|-----------------|
D|-----------------|-----------------|-3----------------|-2---------------|
A|-3---------------|-3---------------|-------------3--3-|-----------------|
E|-----------------|-----------------|------------------|-----------------|

   1 + 2 + 3 + 4 +   1 + 2 + 3 +   4   +   1 + 2 + 3 + 4 +   1 + 2 + 3 + 4 +
G|-----------------|---------------0-4---|-----------5-----|-----------------|
D|-----------------|-------------------2-|-3---------------|-2---------------|
A|-3---------3-----|-3-----------3-------|-------------3-3-|-----------------|
E|-----------------|---------------------|-----------------|-----------------|

Pre chorus:
   1 + 2   + 3 + 4 +     1 + 2   + 3  + 4 +   1 + 2   + 3 + 4 +     1 + 2   + 3 + 4 +
G|---------------------|--------------------|---------------------|-------------------|
D|-0-0---0---0---------|-0-0---0---0-/5-2---|-------------------2-|-4-4---4---4-------|
A|-------------------3-|--------------------|-3-3---3---3-----3---|-------------------|
E|---------------------|------------------3-|---------------------|-------------------|

No bass during 0:42-0:52:

“Take a moment, remind yourself”:
   1 + 2 + 3 + 4 +   1 + 2 + 3 + 4 +     1   + 2 + 3 + 4 +   1 + 2 + 3 + 4 +
G|-----------------|-------------------|-------------------|-----------------|
D|-------------3---|-----------------2-|---------------3---|-----------------|
A|---------------3-|-------------------|-----------------3-|-----------------|
E|-1---------------|-0-----------------|-1-1---------------|-0---------------|

Chorus:
   1 + 2 +   3 + 4 +   1 + 2   +   3 + 4 +   1 + 2 +   3 + 4 +   1 + 2   +   3  +  4   +
G|-------------------|---------------------|-------------------|-------------------------|
D|-------------------|---------3-----------|-------------------|---------3---------------|
A|-3-------3-3-------|-------3-------------|-3-------3-3-------|-------3-----------------|
E|-------------------|-1---------1-1-------|-------------------|-1---------1-1--1-1--1-3-|

   1 + 2 +   3 +   4 +   1 + 2 + 3 + 4 +   1 + 2 + 3 + 4 +    1 + 2  +  3 +   4 +
G|---------------------|-----------------|------------------|---------------------|
D|---------------------|-----3---------0-|-------3----------|---------------------|
A|-3-------3-3---3-----|-----------------|---------------3~-|-----3-----3---3---3-|
E|---------------------|-1-----1-1-------|------------------|---------------------|

2nd verse:
   1 + 2 + 3 + 4 +   1 + 2 + 3 + 4 +   1 + 2 + 3 + 4 +   1 + 2 + 3 + 4 +
G|-----------------|-----------------|-----------------|-----------------|
D|-----------------|-----------------|-3---------------|-2---------------|
A|-----------------|-3---------------|-----------------|-----------------|
E|-----------------|-----------------|-----------------|-----------------|

   1 + 2 + 3 + 4 +   1 + 2 + 3 + 4 +   1 + 2 + 3 + 4 +   1 + 2 + 3 + 4 +
G|-----------------|-----------------|-----------------|-----------------|
D|-----------------|-----------------|-3---------------|-2---------------|
A|-3---------------|-3---------------|-----------------|-----------------|
E|-----------------|-----------------|-----------------|-----------------|

Pre chorus:
   1 + 2   + 3 + 4 +   1 + 2   + 3  + 4 +   1 + 2   + 3 + 4 +   1 + 2   + 3 + 4 +
G|-------------------|--------------------|-------------------|-------------------|
D|-0-0---0---0-------|-0-0---0---0----2---|-------------------|-4-4---4---4-------|
A|-------------------|--------------------|-3-3---3---3-------|-------------------|
E|-------------------|------------------3-|-------------------|-------------------|

No bass during 1:56-2:06:

“Take a moment, remind yourself”(2):
   1 + 2 + 3 + 4 +   1 + 2 + 3 + 4 +     1 + 2 + 3 + 4 +   1 + 2 + 3 + 4 +
G|-----------------|-------------------|-----------------|-----------------|
D|-------------3---|-----------------2-|-------------3---|-----------------|
A|---------------3-|-------------------|---------------3-|-----------------|
E|-1---------------|-0-----------------|-1---------------|-0---------------|

2nd chorus:
   1 + 2 +   3 + 4 +   1 + 2   +   3 + 4 +   1 + 2 +   3 + 4 +   1 + 2   +   3  +  4   +
G|-------------------|---------------------|-------------------|-------------------------|
D|-------------------|---------3-----------|-------------------|---------3---------------|
A|-3-------3-3-------|-------3-------------|-3-------3-3-------|-------3-----------------|
E|-------------------|-1---------1-1-------|-------------------|-1---------1-1--1-1--1-3-|

   1 + 2 +   3 +   4 +   1 + 2 + 3 + 4 +   1 + 2 + 3 + 4 +    1 + 2  +  3 +   4 +
G|---------------------|-----------------|------------------|---------------------|
D|---------------------|-----3---------0-|-------3----------|---------------------|
A|-3-------3-3---3-----|-----------------|---------------3~-|-----3-----3---3---3-|
E|---------------------|-1-----1-1-------|------------------|---------------------|

   1 + 2 +   3 + 4 +   1 +   2   +   3  +  4 +     1 + 2 +   3 + 4 +   1 + 2   +   3  +  4   +
G|-------------------|---------------------------|-------------------|-------------------------|
D|-------------------|-----------3---------------|-------------------|---------3---------------|
A|-3-------3-3-------|---------3---------------2-|-3-------3-3-------|-------3-----------------|
E|-------------------|-1---1-------1-1--1-1------|-------------------|-1---------1-1--1-1--1-3-|

   1 + 2 + 3   +   4 +   1 + 2 + 3 + 4 +   1 + 2 + 3 + 4 +    1 + 2  +  3 +   4 +
G|---------5-----------|-----------------|------------------|---------------------|
D|-----------5---2-----|-----3---------0-|-------3----------|---------------------|
A|-3-3---------------3-|-----------------|---------------3~-|-----3-----3---3---3-|
E|---------------------|-1-----1-1-------|------------------|---------------------|

End:
   1 + 2 + 3 + 4 +   1 + 2 + 3 + 4 +
G|-----------------|-----------------|
D|-------------3---|-----------------|
A|---------------3-|-----------------| x2
E|-1---------------|-0---------------|

************************************

| / Slide up

Almost there ...

Sign in to get your own page with links to favourite songs and more. You are just one click away...

Login with Facebook Login with Google