Search tabs and chords

Search for song, artist or band

Log in

One click and you are in

Login with Facebook Login with Google

Why sign up and log in

Guitar Tabs Explorer
Rebecca Sugar guitar chords for Good little girl

Guitar chords

Good Little Girl by Rebecca Sugar

Intro:
   C chord diagramCC                       Dm7 chord diagramDm7Dm7         Dm6 chord diagramDm6Dm6
a|-------3-----------3-----------3-----------2-----|
E|---0---0---0---0---0---0---1---1---1---1---1---1-|
C| chord diagramC|C|-0---0-0-0---0---0-0-0---2---2-2-2---2---2-2-2---|
G|-------------------------------------------------|

   Cmaj7 chord diagramCmaj7Cmaj7       C chord diagramCC           Dm7 chord diagramDm7Dm7         Dm6 chord diagramDm6Dm6
a|-------2-----------3-----------3-------2---2-2-2-|
E|---0---0---0---0---0---0---1---1---1--1----1-1-1-|
C| chord diagramC|C|-0---0-0-0---0---0-0-0---2---2-2-2---2-----2-2-2-|
G|-------------------------------------------------|

Verse:
   C chord diagramCC                       Dm7 chord diagramDm7Dm7         Dm6 chord diagramDm6Dm6
a|-------3-----------3-----------3-----------2-----|
E|---0---0---0---0---0---0---1---1---1---1---1---1-|
C| chord diagramC|C|-0---0-0-0---0---0-0-0---2---2-2-2---2---2-2-2---|
g|-------------------------------------------------|

   Cmaj7 chord diagramCmaj7Cmaj7       C chord diagramCC           Dm7 chord diagramDm7Dm7         Dm6 chord diagramDm6Dm6
a|-------2-----------3-----------3-----------2-----|
E|---0---0---0---0---0---0---1---1---1-----1-1---1-|
C| chord diagramC|C|-0---0-0-0---0---0-0-0---2---2-2-2---2-2---2-2---|
g|-------------------------------------------------|

Chorus:
   C chord diagramCC           E7 chord diagramE7E7          A# chord diagramA#A#          A chord diagramAA
a|-------3-----------2-----------1-----------0-----|
E|---0---0---0---0---0---0---1---1---1---0---0---0-|
C| chord diagramC|C|-0---0-0-0---2---2-2-2---2---2-2-2---1---1-1-1---|
g|-------------------------------------------------|

   Dm7 chord diagramDm7Dm7                     Dm6 chord diagramDm6Dm6
a|-------3-----------3-----2-2-2-2-2-2-2--|
E|---1---1---1---1---1---1-1-1-1-1-1-1-1--|
C| chord diagramC|C|-2---2-2-2---2---2-2-2---2-2-2-2-2-2-2--|
g|----------------------------------------|

Outro:
a|---2-0--3-3-2--|
E|---0-0--1---1--|
C| chord diagramC|C|-0-0-0--2---2--|

Other versions of Good Little Girl

Good little girl - bad little boyChords

Almost there ...

Sign in to get your own page with links to favourite songs and more. You are just one click away...

Login with Facebook Login with Google