Guitar Tabs Explorer
Rebecca Sugar guitar tabs for Full disclosure solo

Full Disclosure Solo tab


2 / 5 [2 votes]

Full Disclosure Solo tab by Rebecca Sugar

Guitar tabs

Print

-------------------------------------------------------------------------------
             FULL DISCLOSURE - Rebecca Sugar (from Steven Universe)
-------------------------------------------------------------------------------
Tabbed by: Darrian King Lee
Follow me on tumblr at: telebasher.tumblr.com

Tuning: Standard

e|---------------------------------------------------------------------------|
B|---------------------------------------------------------------------------|
G|------------------------------8--7--8--10--8----8-10-/12-12-12-10--8\7/8---|
D|--------8----8----8h10---8-10----------------------------------------------|
A|--10-10---10---10----------------------------------------------------------|
E|---------------------------------------------------------------------------|

e|--11-----11-10------15-16-------16-15--------15----------------------------|
B|-----8---------8----------15----------15-----------------------------------|
G|-------8---------8-----------13----------12--------------------------------|
D|---------------------------------------------------------------------------|
A|---------------------------------------------------------------------------|
E|---------------------------------------------------------------------------|

e|-------------------------------131313-151515-161616-181818-b18-------------|
B|---------131313-151515-161616----------------------------------------------|
G|--151515-------------------------------------------------------------------|
D|---------------------------------------------------------------------------|
A|---------------------------------------------------------------------------|
E|---------------------------------------------------------------------------|

************************************

| /   slide up
| \   slide down
| h   hammer-on
| p   pull-off
| ~   vibrato
| +   harmonic
| x   Mute note
| b   Bend
| pb  Pre-bend
| br  Bend release
| pbr Pre-bend release
| brb Bend release bend

Other versions of Full Disclosure Solo

Full disclosureChords
Full disclosure cellphone songChords

Comment this song and these guitar tabs

Do you have corrections, comments on the guitar tabs, thoughts about the song or a message to the author? Write them below.