Guitar Tabs Explorer
Rebecca Sugar bass tabs for Everything stays

Everything Stays bass tab


4.2 / 5 [13 votes]

Everything Stays bass tab by Rebecca Sugar

Beautiful song! I didn't made the cover, just tabbed it. The song is mostly palm muted, and finger picked.

Bass tabs

Print
  • Tuning: Standard tuning
  • Difficulty: Intermediate

Intro
g|---------------------12---14-----4-5------0---------|
d|----5-7---9p7--12-14----0------7---5----2---0-------|
a|--5--------------------------7----------------3-2-0-|
e|3-------8-----3-------------------------------------|


                        |------Bridge-------|
g|--------5-----------5-------------------------------|
d|------7-------5-7------------------5---5------------|
a|5---5-------5-----6---7---7-3----5---5---5----------|
e|--3-------3-------------0---------------------------|


Chorus
g|--------------------------2----2--------5-4---------|
d|10----10------------------0----1------------5-------|
a|-------------7------7---7-----------3-3-------3-----|
e|---------------0------0-----------------------------|


g|------4----4-2-0-2---8----9-------------------------|
d|5-4-2-0----------0---7----9-------------------------|
a|-------------------3--------------------------------|
e|----------------------------------------------------|

Comment this song and these bass tabs

Do you have corrections, comments on the bass tabs, thoughts about the song or a message to the author? Write them below.