Guitar Tabs Explorer
Rebecca Sugar guitar tabs for Alone together

Alone Together tab


2.9 / 5 [7 votes]

Alone Together tab by Rebecca Sugar

Guitar tabs

Print
Intro:

Emaj7 chord diagramEmaj7Emaj7 - Fdim7 - Am7 chord diagramAm7Am7 - Am9 chord diagramAm9Am9


   Emaj7 chord diagramEmaj7Emaj7  Fdim7  Am7 chord diagramAm7Am7    Am9 chord diagramAm9Am9
e|-4------4------5------7-----------|
B|-4------3------5------5-----------|
G|-4------4------5------5-----------|
D|-2------3------5------5-----------|
A|----------------------------------|
E|----------------------------------|



Chorus:

 Emaj7 chord diagramEmaj7Emaj7 - Fdim7 - Am7 chord diagramAm7Am7 - Am9 chord diagramAm9Am9 (X2)


   Emaj7 chord diagramEmaj7Emaj7         Fdim7         Am7 chord diagramAm7Am7           Am9 chord diagramAm9Am9
e|-4-----4-------4-----4-------5-----5-------7-----7-----|
B|-4--4--4--4----3--3--3--3----5--5--5--5----5--5--5--5--|
G|-4--4--4--4----4--4--4--4----5--5--5--5----5--5--5--5--| X2
D|----2-----2-------3-----3-------5-----5-------5-----5--|
A|-------------------------------------------------------|
E|-------------------------------------------------------|



Amaj7 chord diagramAmaj7Amaj7 - G#7 chord diagramG#7G#7 - Am7 chord diagramAm7Am7 - Am9 chord diagramAm9Am9 (X2)


   Amaj7 chord diagramAmaj7Amaj7         G#7 chord diagramG#7G#7           Am7 chord diagramAm7Am7           Am9 chord diagramAm9Am9
e|-0-----0-------4-----4---------------------7-----7-----|
B|-2--2--2--2----4--4--4--4----5-----5-------5--5--5--5--|
G|-1--1--1--1----5--5 -5--5----5-----5-------5--5--5--5--|
D|----2-----2-------4-----4----5-----5----------5-----5--|
A|----0-----0-------6-----6------------------------------|
E|------------------4-----4-------5-----5----------------|


   Amaj7 chord diagramAmaj7Amaj7         G#7 chord diagramG#7G#7           Am7 chord diagramAm7Am7           Am9 chord diagramAm9Am9
e|-0-----0-------4-----4---------------------7-----------|
B|-2--2--2--2----4--4--4--4----5-----5-------5-----------|
G|-1--1--1--1----5--5 -5--5----5-----5-------5-----------|
D|----2-----2-------4-----4----5-----5-------5-----------|
A|----0-----0-------6-----6------------------------------|
E|------------------4-----4-------5-----5----------------|

Comment this song and these guitar tabs

Do you have corrections, comments on the guitar tabs, thoughts about the song or a message to the author? Write them below.