Log in

One click and you are in

Login with Facebook Login with Google

Why sign up and log in

Guitar Tabs Explorer
Harry Styles bass tabs for Watermelon sugar

Bass tabs

Tuning: Standard (E A D G)

No bass until 0:31
Intro:

G|------------------------|X2
D|------------------------|
A|-/5---10/12---3---------|
E|------------------3-----|


Verse 1:

G|---------------------------------5-------------------|
D|-----------------------------------------------------|
A|-5--5-7-8-7-5-x-5-3---------3--3---3-5--------3-5-3--|
E|---------------------3-5-3-5-----------3--3-5--------|

G|---------------------------------5---------------------|
D|--------------------------------------------5----------|
A|-5--5-7-8-7-5-x-5-3---------3--3---3-5----5---5-----5-3|
E|---------------------3-5-3-5-----------3--------3-5----|


Pre-Chorus:

G|----------------------------|
D|----------------------------|
A|-/5---10/12---10h12---------|
E|--------------------8--3h5--|


Chorus:

G|---------------------------------5-------------------|
D|-----------------------------------------------------|
A|-5--5-7-8-7-5-x-5-3---------3--3---3-5--------3-5-3--|
E|---------------------3-5-3-5-----------3--3-5--------|

G|---------------------------------------------------------|
D|--------------------------7------------------------------|
A|-5--5-7-8-7-5-x-5-3--7-10---10-7-3--3-3-x-3---------3-5-3|
E|--------------------------------------------3---3-5------|

G|--------------------------------|
D|--------------------------------|
A|-5--5h7--------3--3-3------3----|
E|--------5--3-5--------3--5------|

Bridge:

No bass until 2:01

G|-------------|
D|-------------|
A|-/5---10/12--|
E|-------------|


Chorus X2:

G|---------------------------------------------------------------------------|
D|---------------------------------------------------------------------------|
A|-5-0-3-5-5-5-5--------3-x-3-3-5--------3-5-3-------------------------------|
E|--------------5-3-5-5-----------3--3-5-------------------------------------|


************************************

| x   Dead note
| h   Hammer-on
| /   Slide up
| \   Slide down

************************************

Almost there ...

Sign in to get your own page with links to favourite songs and more. You are just one click away...

Login with Facebook Login with Google