Log in

One click and you are in

Login with Facebook Login with Google

Why sign up and log in

Guitar Tabs Explorer
Harry Styles guitar tabs for Two ghosts

Intro

Intro:
(for acoustic)
e|-----4/7------4/7--7h9p7--|-----4/7--5p4------------|
B|--5--------5--------------|--5------------5--5/7\5--|
G|--------------------------|-------------------------|
D|--------------------------|-------------------------|
A|--------------------------|-------------------------|
E|--------------------------|-------------------------|

(for electric)
e|-----4/7------4/7--7h9p7--|-----4/7--5p4-------------|
B|--5--------5--------------|--5------------5--5b7br5--|
G|--------------------------|--------------------------|
D|--------------------------|--------------------------|
A|--------------------------|--------------------------|
E|--------------------------|--------------------------|


************************************

| h   Hammer-on
| p   Pull-off
| /   Slide up
| \   Slide down
| b   Bend
| br  Bend release

Other versions of Two Ghosts

Two ghostsChords
Two ghosts (Ver. 2)Chords
Two ghosts (Ver. 3)Chords
Two ghosts acousticChords
Two ghosts - soloTabs

↓ Add and view comments below ↓

What do you think about this song and these tabs?

Add your comments, questions, rant or a thumbs up below.

Almost there ...

Sign in to get your own page with links to favourite songs and more. You are just one click away...

Login with Facebook Login with Google