Log in

One click and you are in

Login with Facebook Login with Google

Why sign up and log in

Guitar Tabs Explorer
Harry Styles guitar chords for Two ghosts (Ver. 2)

Guitar chords with lyrics

Harry Styles
"Two Ghosts"

Standard tuning. Corrections welcome.
   A chord diagramE MajorE    A chord diagramF#m11F#m11 A chord diagramG#m6G#m6  A chord diagramA majorA     A chord diagramC# minorC#m   A chord diagramBB     A chord diagramG MajorG
e|-0----0-----0-----0-----4-----2-----------|
B|-0----0-----0-----2-----5-----4-----3-----|
G|-1----2-----4-----2-----6-----4-----4-----| Notes in parentheses are played by
D|-2----4-----6-----2-----6-----4-----5-----| the bass and thus optional
A|-2----4-----6-----0-----4-----2-----5-----|
E|(0)--(2)---(4)----------------------3-----|


Intro:
  A chord diagramE MajorE                                A chord diagramF#m11F#m11
e|----------------------------7~--|----------------------------7~--|
B|----------------------5/9-------|----------------------5/9-------|
G|--------------------------------|--------------------------------|
D|--------------------------------|--------------------------------|
A|--------------------------------|--------------------------------|
E|--------------------------------|--------------------------------|
  A chord diagramG#m6G#m6                             A chord diagramF#m11F#m11
e|7/9\7~----------------------7~--|----------------5p4-------------|
B|----------------------5/9-------|------------------------5b7~---r|
G|--------------------------------|--------------------------------|
D|--------------------------------|--------------------------------|
A|--------------------------------|--------------------------------|
E|--------------------------------|--------------------------------|


Verse 1:
A chord diagramE MajorE
Same lips red, same eyes blue
A chord diagramF#m11F#m11
Same white shirt, couple more tattoos
A chord diagramG#m6G#m6                               A chord diagramF#m11F#m11
     But it's not you and it's not me
A chord diagramE MajorE
Tastes so sweet, looks so real
A chord diagramF#m11F#m11
Sounds like something that I used to feel
A chord diagramG#m6G#m6                          A chord diagramF#m11F#m11
     But I can't touch what I see


Chorus:
      A chord diagramA majorA                   A chord diagramE MajorE
We're not who we used to be
      A chord diagramA majorA                   A chord diagramE MajorE
We're not who we used to be
           A chord diagramC# minorC#m        A chord diagramBB               A chord diagramA majorA        A chord diagramG#m6G#m6      A chord diagramF#m11F#m11
We're just two ghosts standing in the place of you and me
A chord diagramC# minorC#m       A chord diagramBB               A chord diagramA majorA                    A chord diagramE MajorE
Trying to remember how it feels to have a heartbeat

A chord diagramF#m11F#m11
A chord diagramG#m6G#m6
A chord diagramF#m11F#m11


Verse 2:
A chord diagramE MajorE
The fridge light washes this room white
A chord diagramF#m11F#m11
Moon dances over your good side
A chord diagramG#m6G#m6                        A chord diagramF#m11F#m11
    This was all we used to need
A chord diagramE MajorE
Tongue-tied like we've never known
A chord diagramF#m11F#m11
Telling those stories we already told
A chord diagramG#m6G#m6                                   A chord diagramF#m11F#m11
    'Cause we don't say what we really mean


Chorus:
      A chord diagramA majorA                   A chord diagramE MajorE
We're not who we used to be
      A chord diagramA majorA                   A chord diagramE MajorE
We're not who we used to be
           A chord diagramC# minorC#m        A chord diagramBB               A chord diagramA majorA        A chord diagramG#m6G#m6      A chord diagramF#m11F#m11
We're just two ghosts standing in the place of you and me
      A chord diagramA majorA                   A chord diagramE MajorE
We're not who we used to be
      A chord diagramA majorA                   A chord diagramE MajorE
We're not who we used to be
           A chord diagramC# minorC#m        A chord diagramBB             A chord diagramA majorA          A chord diagramG#m6G#m6 A chord diagramF#m11F#m11
We're just two ghosts swimming in a glass half empty
A chord diagramC# minorC#m       A chord diagramBB               A chord diagramA majorA                    A chord diagramE MajorE
Trying to remember how it feels to have a heartbeat


Solo:
  A chord diagramE MajorE           A chord diagramG#m6G#m6          A chord diagramG MajorG               A chord diagramF#m11F#m11
e|----------------------------------------------------------------|
B|/5~-----5/7~------/9-7\5/7~-------/9-7\5------------------------|
G|-----------------------------------------4/6~----------\4/6\4/6-|
D|----------------------------------------------------------------|
A|----------------------------------------------------------------|
E|----------------------------------------------------------------|

 A chord diagramE MajorE           A chord diagramG#m6G#m6          A chord diagramG MajorG               A chord diagramF#m11F#m11
e|----------------------------------------------------------------|
B|/5~-----5/7~------/9-7\5/7~-------/9-7\5------------------------|
G|-----------------------------------------4/6~----------4\-------|
D|----------------------------------------------------------------|
A|----------------------------------------------------------------|
E|----------------------------------------------------------------|


Chorus:
      A chord diagramA majorA                   A chord diagramE MajorE
We're not who we used to be
      A chord diagramA majorA                   A chord diagramE MajorE
We're not who we used to be
           A chord diagramC# minorC#m        A chord diagramBB               A chord diagramA majorA        A chord diagramG#m6G#m6      A chord diagramF#m11F#m11
We're just two ghosts standing in the place of you and me
      A chord diagramA majorA                   A chord diagramE MajorE
We're not who we used to be
      A chord diagramA majorA                   A chord diagramE MajorE
We're not who we used to be
           A chord diagramC# minorC#m        A chord diagramBB             A chord diagramA majorA          A chord diagramG#m6G#m6 A chord diagramF#m11F#m11
We're just two ghosts swimming in a glass half empty
A chord diagramC# minorC#m       A chord diagramBB               A chord diagramA majorA                    A chord diagramE MajorE
Trying to remember how it feels to have a heartbeat

A chord diagramF#m11F#m11
A chord diagramG#m6G#m6
A chord diagramF#m11F#m11


Outro:
A chord diagramF#m11F#m11                                               A chord diagramE MajorE     A chord diagramF#m11F#m11  A chord diagramG#m6G#m6
     Trying to remember how it feels to have a heartbeat
A chord diagramF#m11F#m11                                                        A chord diagramE MajorE
     I'm just trying to remember how it feels to have a heartbeat


***********************************
| /   Slide up
| \   Slide down
| ()  Optional chord note
| ~   Vibrato

Other versions of Two Ghosts

Two ghostsChords
Two ghosts (Ver. 3)Chords
Two ghosts acousticChords
Two ghosts - introChords
Two ghosts - soloChords

↓ Add and view comments below ↓

What do you think about this song and these chords?

Add your comments, questions, rant or a thumbs up below.

Almost there ...

Sign in to get your own page with links to favourite songs and more. You are just one click away...

Login with Facebook Login with Google