Log in

One click and you are in

Login with Facebook Login with Google

Why sign up and log in

Guitar Tabs Explorer
Harry Styles guitar chords for To be so lonely

Guitar chords with lyrics

Tuning: Standard (E A D G B E)


Intro:

e|----------------|----------------|10--x-----------|----------------|10--x-----------|
B|--------3-5-3-5/|8---------------|8---x---3-5-3-5/|----------------|8---x-----------|
G|--------4-5-4-5/|7---------------|7---x---4-5-4-5/|----------------|7---x-----------|
D|----------------|----------------|----------------|----------------|----------------|
A|----------------|----------------|----------------|----------------|----------------|
E|----------------|----------------|----------------|----------------|----------------|
  1 + 2 + 3 + 4 +
Verse 1:
  A chord diagramG MajorG
e|----------------|10--x-----------|----------------|10--x-----------|
B|8---------------|8---x---3-5-3-5-|8---------------|8---x---3-5-3-5-|
G|7---------------|7---x---4-5-4-5-|7---------------|7---x---4-5-4-5-|
D|----------------|----------------|----------------|----------------|
A|----------------|----------------|----------------|----------------|
E|----------------|----------------|----------------|----------------|
  A chord diagramC6C6
e|----------------|----x-----------|----------------|----x-----------|
B|1---------------|5---x---3-5-3-5-|1---------------|5---x---3-5-3-5-|
G|2---------------|5---x---4-5-4-5-|2---------------|5---x---4-5-4-5-|
D|----------------|----------------|----------------|----------------|
A|----------------|----------------|----------------|----------------|
E|----------------|----------------|----------------|----------------|

A chord diagramG MajorG
Don't blame me for falling
A chord diagramG MajorG
I was just a little boy
A chord diagramC6C6
Don’t blame the drunk caller
A chord diagramC6C6
Wasn't ready for it all


Pre-Chorus:
A chord diagramG MajorG
You can't blame me, darling
A chord diagramG MajorG
Not even a little bit, I was away
A chord diagramC6C6
I’m just an arrogant son of a bitch
A chord diagramC6C6
Who can't admit when he's sorry


Chorus:
A chord diagramA minorAm                       A chord diagramG MajorG
   Don't call me "baby" again, you've got your reasons
A chord diagramE minorEm                                 A chord diagramFF
   I know that you're trying to be friends, I know you mean it
A chord diagramA minorAm                       A chord diagramG MajorG                            A chord diagramE minorEm
   Don't call me "baby" again, it's hard for me to go home
      A chord diagramFF
   Be so lonely


Verse 2:
A chord diagramG MajorG
I just hope you see me in a little better light
A chord diagramG MajorG
Do you think it’s easy being of the jealous kind?
A chord diagramC6C6
’Cause I miss the shape of your lips
A chord diagramC6C6
Your wit, it's just a trick
A chord diagramC6C6
This is it, so I’m sorry


Chorus:
A chord diagramA minorAm                       A chord diagramG MajorG
   Don't call me "baby" again, you've got your reasons
A chord diagramE minorEm                                 A chord diagramFF
   I know that you're trying to be friends, I know you mean it
A chord diagramA minorAm                       A chord diagramG MajorG                            A chord diagramE minorEm
   Don't call me "baby" again, it's hard for me to go home
      A chord diagramFF
   Be so lonely


Post-Chorus:
A chord diagramA minorAm       A chord diagramG MajorG
   To be so lonely, to be so
A chord diagramE minorEm       A chord diagramFF
   To be so lonely
A chord diagramA minorAm       A chord diagramG MajorG
   To be so lonely, to be so
A chord diagramE minorEm       A chord diagramFF
   To be so lonely


Bridge:
A chord diagramA minorAm   A chord diagramC majorC

A chord diagramFF
   And I'm just an arrogant son of a bitch

   Who can't admit when he's sorry


Chorus:
A chord diagramA minorAm                       A chord diagramG MajorG
   Don't call me "baby" again, you've got your reasons
A chord diagramE minorEm                                 A chord diagramFF
   I know that you're trying to be friends, I know you mean it
A chord diagramA minorAm                       A chord diagramG MajorG                            A chord diagramE minorEm
   Don't call me "baby" again, it's hard for me to go home
      A chord diagramFF
   Be so lonely


Post-Chorus:
A chord diagramA minorAm       A chord diagramG MajorG
   To be so lonely, to be so
A chord diagramE minorEm       A chord diagramFF
   To be so lonely
A chord diagramA minorAm       A chord diagramG MajorG
   To be so lonely, to be so
A chord diagramE minorEm       A chord diagramFF
   To be so lonely

Other versions of To Be So Lonely

To be so lonely ukuleleChords

↓ Add and view comments below ↓

What do you think about this song and these chords?

Add your comments, questions, rant or a thumbs up below.

Almost there ...

Sign in to get your own page with links to favourite songs and more. You are just one click away...

Login with Facebook Login with Google