Log in

One click and you are in

Login with Facebook Login with Google

Why sign up and log in

Guitar Tabs Explorer
Harry Styles guitar tabs for Sweet creature (Ver. 2)

Guitar tabs

Intro:
e|--------------------|----------------|
B|--0-----------0-----|--5-------4-----|
G|--------0-----------|-----0-------0--|
D|-----0--------------|----------------| x3
A|--------------------|--3-------2-----|
E|--3--------3-----3--|----------------|

e|--------------------|
B|--0-----------0-----|
G|--------0-----------|
D|-----0--------------| x2
A|--------------------|
E|--3--------3-----3--|
Verse:
e|--------------------|-----------------|-------------------|--------------------|
B|--0-----0-----0-----|--5-------4------|--0----------0-----|--0-----------0-----|
G|--------------------|-----0-------0---|--------0----------|--------0-----------|
D|-----0--------------|-----------------|-----0-------------|-----0--------------|
A|--------------------|--3-------2------|-------------------|--------------------|
E|--3-------3------3--|-----------------|--3--------3----3--|--3--------3-----3--|

e|--------------------|--------------------|--------------------|--------------------|
B|--8-----------------|--7-----------7-----|--5-----------5-----|--0-----------0-----|
G|--------0-----8-----|--------0-----------|--------0-----------|--------0-----------|
D|--------------------|--------------------|--------------------|-----0--------------|
A|--7--7-----7-----7--|--5--5-----5-----5--|--3--3-----3-----3--|--------------------|
E|--------------------|--------------------|--------------------|--3--------3-----3--|

e|--------------------|-----------------|-------------------|--------------------|
B|--0-----0-----0-----|--5-------4------|--0----------0-----|--0-----------0-----|
G|--------------------|-----0-------0---|--------0----------|--------0-----------|
D|-----0--------------|-----------------|-----0-------------|-----0--------------|
A|--3--------3-----3--|--3-------2------|-------------------|--------------------|
E|--------------------|-----------------|--3--------3----3--|--3--------3-----3--|

e|--------------------|--------------------|--------------------|--------------------|
B|--8-----------------|--7-----------7-----|--5-----------5-----|--0-----------0-----|
G|--------0-----8-----|--------0-----------|--------0-----------|--------0-----------|
D|--------------------|--------------------|--------------------|-----0--------------|
A|--7--7-----7-----7--|--5--5-----5-----5--|--3--3-----3-----3--|--------------------|
E|--------------------|--------------------|--------------------|--3--------3-----3--|

Pre chorus:
e|--------------------|--------------------|--------------0-----|--------------0-----|
B|--1-----------1-----|--1-----------1-----|--0-----------------|--0-----------------|
G|--------2-----------|--------2-----------|--------0-----------|--------0-----------|
D|--------------------|--------------------|--------------------|--------------------|
A|--0--0-----0-----0--|--0--0-----0-----0--|--------------------|--------------------|
E|--------------------|--------------------|--0--0-----0-----0--|--0--0-----0-----0--|

e|--------------------|--------------------|--------------------|--0-----------------|
B|--0-----------0-----|--0-----------0-----|--3-----------3-----|--------3-----------|
G|--------0-----------|--------0-----------|--------2-----------|--------------2-----|
D|-----0--------------|-----0--------------|--0--0-----0-----0--|--0--0-----0-----0--|
A|--------------------|--------------------|--------------------|--------------------|
E|--3--------3-----3--|--3--------3-----3--|--------------------|--------------------|

e|--------------------|--------------------|--------------0-----|--------------0-----|
B|--1-----------1-----|--1-----------1-----|--0-----------------|--0-----------------|
G|--------2-----------|--------2-----------|--------0-----------|--------0-----------|
D|--------------------|--------------------|--------------------|--------------------|
A|--0--0-----0-----0--|--0--0-----0-----0--|--------------------|--------------------|
E|--------------------|--------------------|--0--0-----0-----0--|--0--0-----0-----0--|

e|--------------------|--------------------|--------------------|
B|--0-----------0-----|--0-----------0-----|--3-----------------|
G|--------0-----------|--------0-----------|--2-----------------|
D|-----0--------------|-----0--------------|--0-----------------|
A|--------------------|--------------------|--------------------|
E|--3--------3-----3--|--3--------3-----3--|--------------------|


Chorus:
e|--------------------|----------------|
B|--0-----------0-----|--5-------4-----|
G|--------0-----------|-----0-------0--|
D|-----0--------------|----------------| x2
A|--------------------|--3-------2-----|
E|--3--------3-----3--|----------------|

e|--------------------|
B|--0-----------0-----|
G|--------0-----------|
D|-----0--------------|
A|--------------------|
E|--3--------3-----3--|

e|--------------|--2-----------------|--2-----------------|
B|--5--3--1--0--|--------------1-----|--------------1-----|
G|--------------|--------2-----------|--------2-----------|
D|--------------|--0--0-----0-----0--|--0--0-----0-----0--|
A|--3--2--0-----|--------------------|--------------------|
E|-----------3--|--------------------|--------------------|

e|--2-----------------|--2-----------------|
B|--------------1-----|--------------1-----|
G|--------2-----------|--------2-----------|
D|--0--0-----0-----0--|--0--0-----0-----0--|
A|--------------------|--------------------|
E|--------------------|--------------------|

e|--------------------|----------------|
B|--0-----------0-----|--5-------4-----|
G|--------0-----------|-----0-------0--|
D|-----0--------------|----------------| x2
A|--------------------|--3-------2-----|
E|--3--------3-----3--|----------------|

e|--------------------|
B|--0-----------0-----|
G|--------0-----------|
D|-----0--------------|
A|--------------------|
E|--3--------3-----3--|

e|--------------------------|--------------------|
B|--5--3--1-----------1-----|--0-----------0-----|
G|--------------2-----------|--------0-----------|
D|--------------------------|--------------------|
A|--3--2--0--0-----0-----0--|--------------------|
E|--------------------------|--3--3-----3-----3--|

e|--2-----------------|--2-----------------|--2--|
B|--------------1-----|--------------1-----|--1--|
G|--------2-----------|--------2-----------|--2--|
D|--0--0-----0-----0--|--0--0-----0-----0--|--0--|
A|--------------------|--------------------|-----|
E|--------------------|--------------------|-----|


Verse:
e|--------------------|-----------------|-------------------|--------------------|
B|--0-----0-----0-----|--5-------4------|--0----------0-----|--0-----------0-----|
G|--------------------|-----0-------0---|--------0----------|--------0-----------|
D|-----0--------------|-----------------|-----0-------------|-----0--------------|
A|--------------------|--3-------2------|-------------------|--------------------|
E|--3-------3------3--|-----------------|--3--------3----3--|--3--------3-----3--|

e|--------------------|--------------------|--------------------|--------------------|
B|--8-----------------|--7-----------7-----|--5-----------5-----|--0-----------0-----|
G|--------0-----8-----|--------0-----------|--------0-----------|--------0-----------|
D|--------------------|--------------------|--------------------|-----0--------------|
A|--7--7-----7-----7--|--5--5-----5-----5--|--3--3-----3-----3--|--------------------|
E|--------------------|--------------------|--------------------|--3--------3-----3--|

e|--------------------|-----------------|-------------------|--------------------|
B|--0-----0-----0-----|--5-------4------|--0----------0-----|--0-----------0-----|
G|--------------------|-----0-------0---|--------0----------|--------0-----------|
D|-----0--------------|-----------------|-----0-------------|-----0--------------|
A|--3--------3-----3--|--3-------2------|-------------------|--------------------|
E|--------------------|-----------------|--3--------3----3--|--3--------3-----3--|

e|--------------------|--------------------|--------------------|--------------------|
B|--8-----------------|--7-----------7-----|--5-----------5-----|--0-----------0-----|
G|--------0-----8-----|--------0-----------|--------0-----------|--------0-----------|
D|--------------------|--------------------|--------------------|-----0--------------|
A|--7--7-----7-----7--|--5--5-----5-----5--|--3--3-----3-----3--|--------------------|
E|--------------------|--------------------|--------------------|--3--------3-----3--|


Pre chorus:
e|--------------------|--------------------|--------------0-----|--------------0-----|
B|--1-----------1-----|--1-----------1-----|--0-----------------|--0-----------------|
G|--------2-----------|--------2-----------|--------0-----------|--------0-----------|
D|--------------------|--------------------|--------------------|--------------------|
A|--0--0-----0-----0--|--0--0-----0-----0--|--------------------|--------------------|
E|--------------------|--------------------|--0--0-----0-----0--|--0--0-----0-----0--|

e|--------------------|--------------------|--------------------|--0-----------------|
B|--0-----------0-----|--0-----------0-----|--3-----------3-----|--------3-----------|
G|--------0-----------|--------0-----------|--------2-----------|--------------2-----|
D|-----0--------------|-----0--------------|--0--0-----0-----0--|--0--0-----0-----0--|
A|--------------------|--------------------|--------------------|--------------------|
E|--3--------3-----3--|--3--------3-----3--|--------------------|--------------------|

e|--------------------|--------------------|--------------0-----|--------------0-----|
B|--1-----------1-----|--1-----------1-----|--0-----------------|--0-----------------|
G|--------2-----------|--------2-----------|--------0-----------|--------0-----------|
D|--------------------|--------------------|--------------------|--------------------|
A|--0--0-----0-----0--|--0--0-----0-----0--|--------------------|--------------------|
E|--------------------|--------------------|--0--0-----0-----0--|--0--0-----0-----0--|

e|--------------------|--------------------|--------------------|
B|--0-----------0-----|--0-----------0-----|--3-----------------|
G|--------0-----------|--------0-----------|--2-----------------|
D|-----0--------------|-----0--------------|--0-----------------|
A|--------------------|--------------------|--------------------|
E|--3--------3-----3--|--3--------3-----3--|--------------------|


Chorus:
e|--------------------|----------------|
B|--0-----------0-----|--5-------4-----|
G|--------0-----------|-----0-------0--|
D|-----0--------------|----------------| x2
A|--------------------|--3-------2-----|
E|--3--------3-----3--|----------------|

e|--------------------|
B|--0-----------0-----|
G|--------0-----------|
D|-----0--------------|
A|--------------------|
E|--3--------3-----3--|

e|--------------|--2-----------------|--2-----------------|
B|--5--3--1--0--|--------------1-----|--------------1-----|
G|--------------|--------2-----------|--------2-----------|
D|--------------|--0--0-----0-----0--|--0--0-----0-----0--|
A|--3--2--0-----|--------------------|--------------------|
E|-----------3--|--------------------|--------------------|

e|--2-----------------|--2-----------------|
B|--------------1-----|--------------1-----|
G|--------2-----------|--------2-----------|
D|--0--0-----0-----0--|--0--0-----0-----0--|
A|--------------------|--------------------|
E|--------------------|--------------------|

e|--------------------|----------------|
B|--0-----------0-----|--5-------4-----|
G|--------0-----------|-----0-------0--|
D|-----0--------------|----------------| x2
A|--------------------|--3-------2-----|
E|--3--------3-----3--|----------------|

e|--------------------|
B|--0-----------0-----|
G|--------0-----------|
D|-----0--------------|
A|--------------------|
E|--3--------3-----3--|

e|--------------------------|--------------------|
B|--5--3--1-----------1-----|--0-----------0-----|
G|--------------2-----------|--------0-----------|
D|--------------------------|--------------------|
A|--3--2--0--0-----0-----0--|--------------------|
E|--------------------------|--3--3-----3-----3--|

e|--2-----------------|--2-----------------|--2--|
B|--------------1-----|--------------1-----|--1--|
G|--------2-----------|--------2-----------|--2--|
D|--0--0-----0-----0--|--0--0-----0-----0--|--0--|
A|--------------------|--------------------|-----|
E|--------------------|--------------------|-----|


Bridge:
e|----------------------|----------------|----------------------|--------------|
B|----------------------|--0-------------|----------------------|--0-----------|
G|----------0-----------|--------0-------|----------0-----------|--------------|
D|-------0--------0-----|----------------|-------0--------0-----|--------------| x2
A|----------------------|----------------|----------------------|--------------|
E|--2/3--------3-----3--|-----3-----3----|--2/3--------3-----3--|-----3--3--5--|

e|----------------------|--------------|----------------------|--------------|
B|----------------------|--0-----------|----------------------|--0-----------|
G|----------0-----------|--------0-----|----------0-----------|--------------|
D|--0h4-----------4-----|--------------|--0h4-----------4-----|--------------| x2
A|----------------------|--------------|----------------------|--------------|
E|-------0-----0-----0--|-----0-----0--|-------0-----0-----0--|-----0--0--2--|


Pre chorus:
e|--------------------|--------------------|--------------0-----|--------------0-----|
B|--1-----------1-----|--1-----------1-----|--0-----------------|--0-----------------|
G|--------2-----------|--------2-----------|--------0-----------|--------0-----------|
D|--------------------|--------------------|--------------------|--------------------|
A|--0--0-----0-----0--|--0--0-----0-----0--|--------------------|--------------------|
E|--------------------|--------------------|--0--0-----0-----0--|--0--0-----0-----0--|

e|--------------------|--------------------|--------------------|--0-----------------|
B|--0-----------0-----|--0-----------0-----|--3-----------3-----|--------3-----------|
G|--------0-----------|--------0-----------|--------2-----------|--------------2-----|
D|-----0--------------|-----0--------------|--0--0-----0-----0--|--0--0-----0-----0--|
A|--------------------|--------------------|--------------------|--------------------|
E|--3--------3-----3--|--3--------3-----3--|--------------------|--------------------|

e|--------------------|--------------------|--------------0-----|--------------0-----|
B|--1-----------1-----|--1-----------1-----|--0-----------------|--0-----------------|
G|--------2-----------|--------2-----------|--------0-----------|--------0-----------|
D|--------------------|--------------------|--------------------|--------------------|
A|--0--0-----0-----0--|--0--0-----0-----0--|--------------------|--------------------|
E|--------------------|--------------------|--0--0-----0-----0--|--0--0-----0-----0--|

e|--------------------|--------------------|--------------------|
B|--0-----------0-----|--0-----------0-----|--3-----------------|
G|--------0-----------|--------0-----------|--2-----------------|
D|-----0--------------|-----0--------------|--0-----------------|
A|--------------------|--------------------|--------------------|
E|--3--------3-----3--|--3--------3-----3--|--------------------|


Chorus:
e|--------------------|----------------|
B|--0-----------0-----|--5-------4-----|
G|--------0-----------|-----0-------0--|
D|-----0--------------|----------------| x2
A|--------------------|--3-------2-----|
E|--3--------3-----3--|----------------|

e|--------------------|
B|--0-----------0-----|
G|--------0-----------|
D|-----0--------------|
A|--------------------|
E|--3--------3-----3--|

e|--------------|--2-----------------|--2-----------------|
B|--5--3--1--0--|--------------1-----|--------------1-----|
G|--------------|--------2-----------|--------2-----------|
D|--------------|--0--0-----0-----0--|--0--0-----0-----0--|
A|--3--2--0-----|--------------------|--------------------|
E|-----------3--|--------------------|--------------------|

e|--2-----------------|--2-----------------|
B|--------------1-----|--------------1-----|
G|--------2-----------|--------2-----------|
D|--0--0-----0-----0--|--0--0-----0-----0--|
A|--------------------|--------------------|
E|--------------------|--------------------|

e|--------------------|----------------|
B|--0-----------0-----|--5-------4-----|
G|--------0-----------|-----0-------0--|
D|-----0--------------|----------------| x2
A|--------------------|--3-------2-----|
E|--3--------3-----3--|----------------|

e|--------------------|
B|--0-----------0-----|
G|--------0-----------|
D|-----0--------------|
A|--------------------|
E|--3--------3-----3--|

e|--------------------------|--------------------|
B|--5--3--1-----------1-----|--0-----------0-----|
G|--------------2-----------|--------0-----------|
D|--------------------------|--------------------|
A|--3--2--0--0-----0-----0--|--------------------|
E|--------------------------|--3--3-----3-----3--|

e|--2-----------------|--2-----------------|--2--|
B|--------------1-----|--------------1-----|--1--|
G|--------2-----------|--------2-----------|--2--|
D|--0--0-----0-----0--|--0--0-----0-----0--|--0--|
A|--------------------|--------------------|-----|
E|--------------------|--------------------|-----|


Outro:
e|--------------------|----------------|
B|--0-----------0-----|--5-------4-----|
G|--------0-----------|-----0-------0--|
D|-----0--------------|----------------| x2
A|--------------------|--3-------2-----|
E|--3--------3-----3--|----------------|

e|--------------------|
B|--0-----------0-----|
G|--------0-----------|
D|-----0--------------|
A|--------------------|
E|--3--------3-----3--|

e|--------------------------|--------------------|
B|--5--3--1-----------1-----|--0-----------0-----|
G|--------------2-----------|--------0-----------|
D|--------------------------|--------------------|
A|--3--2--0--0-----0-----0--|--------------------|
E|--------------------------|--3--3-----3-----3--|

e|--2-----------------|--2-----------------|--2--|
B|--------------1-----|--------------1-----|--1--|
G|--------2-----------|--------2-----------|--2--|
D|--0--0-----0-----0--|--0--0-----0-----0--|--0--|
A|--------------------|--------------------|-----|
E|--------------------|--------------------|-----|

e|----------------------|----------------|----------------------|--------------|
B|----------------------|--0-------------|----------------------|--0-----------|
G|----------0-----------|--------0-------|----------0-----------|--------------|
D|-------0--------0-----|----------------|-------0--------0-----|--------------|
A|----------------------|----------------|----------------------|--------------|
E|--2/3--------3-----3--|-----3-----3----|--2/3--------3-----3--|-----3--3--5--|

e|----------------------|----------------|----------------------|
B|----------------------|--0-------------|----------------------|
G|----------0-----------|--------0-------|----------0-----------|
D|-------0--------0-----|----------------|-------0--------0-----|
A|----------------------|----------------|----------------------|
E|--2/3--------3-----3--|-----3-----3----|--2/3--------3-----3--|


************************************

| /  Slide up
| h  Hammer-on

Other versions of Sweet Creature

Sweet creatureChords
Sweet creature (Ver. 2)Chords
Sweet creatureTabs

↓ Add and view comments below ↓

What do you think about this song and these tabs?

Add your comments, questions, rant or a thumbs up below.

Almost there ...

Sign in to get your own page with links to favourite songs and more. You are just one click away...

Login with Facebook Login with Google