Log in

One click and you are in

Login with Facebook Login with Google

Why sign up and log in

Guitar Tabs Explorer
Harry Styles guitar chords for Sign of the times (Ver. 2)

Guitar chords with lyrics

"Sign of the Times"

Standard tuning.

  A chord diagramFF     A chord diagramDmDm         A chord diagramC majorC     A chord diagramBb majorBb
e|1----------1-----0-----1-----|
B|1-----3----3-----1-----3-----|
G|2-----2-or-2-----0-----3-----|
D|3-----3----0-----2-----3-----|
A|3-----5----------3-----1-----|
E|1----------------------------|

Intro:

A chord diagramFF A chord diagramDmDm A chord diagramC majorC


Verse:
A chord diagramFF
 Just stop your crying
                   A chord diagramDmDm
It’s a sign of the times
               A chord diagramC majorC
Welcome to the final show

Hope you’re wearing your best clothes
A chord diagramFF
 You can't bribe the door
                   A chord diagramDmDm
On your way to the sky
                A chord diagramC majorC
You look pretty good down here

But you ain't really good

Pre-Chorus:
A chord diagramFF
If we never learn we been here before
A chord diagramDmDm
Why ae we always stuck and running from
       A chord diagramC majorC
The bullets?

The bullets
A chord diagramFF
If we never learn we been here before
A chord diagramDmDm
Why are we always stuck and running from
       A chord diagramC majorC
The bullets?

The bullets


Chorus:
  A chord diagramFF               A chord diagramDmDm          A chord diagramC majorC                                      A chord diagramFF
e|1///13~----15\\\10~---/15\\\8~-----------------------------------------|
B|1///13~----------------------------------------------------------------|
G|2///14~--------------------------7b9r7b9r7-5-3-------7b9r7b9r7-5-------|
D|-----------------------------------------------5~----------------7-----|
A|-------------------------------------------------------------------8~--|
E|-----------------------------------------------------------------------|

A chord diagramFF
Just stop your crying
                   A chord diagramDmDm
It’s a sign of the times
             A chord diagramC majorC
We gotta get away from here

We gotta get away from here
A chord diagramFF
Just stop your crying
            A chord diagramDmDm
It’ll be alright
                      A chord diagramC majorC
They told me that the end is near

We gotta get away from here


Verse:
A chord diagramFF
 Just stop your crying
                      A chord diagramDmDm
Have the time of your life
                     A chord diagramC majorC
Breaking through the atmosphere

And things look pretty good from here
A chord diagramFF                             A chord diagramDmDm
Remember everything will be alright
               A chord diagramC majorC
We could meet again somewhere

Somewhere far away from here


Pre-Chorus:
A chord diagramFF
If we never learn we been here before
A chord diagramDmDm
Why are we always stuck and running from
       A chord diagramC majorC
The bullet?

The bullets
A chord diagramFF
If we never learn we been here before
A chord diagramDmDm
Why are we always stuck and running from
       A chord diagramC majorC
The bullet?

The bullets


Chorus:
  A chord diagramFF               A chord diagramDmDm          A chord diagramC majorC                                      A chord diagramFF
e|1///13~----15\\\10~---/15\\\8~-----------------------------------------|
B|1///13~----------------------------------------------------------------|
G|2///14~--------------------------7b9r7b9r7-5-3-------7b9r7b9r7-5-------|
D|-----------------------------------------------5~----------------7-----|
A|-------------------------------------------------------------------8~--|
E|-----------------------------------------------------------------------|

A chord diagramFF
Just stop your crying
                   A chord diagramDmDm
It’s a sign of the times
             A chord diagramC majorC
We gotta get away from here

We gotta get away from here
A chord diagramFF
Stop your crying
                 A chord diagramDmDm
Baby, it’ll be alright
                      A chord diagramC majorC
They told me that the end is near

We gotta get away from here


Pre-Chorus:
A chord diagramFF
If we never learn we been here before
A chord diagramDmDm
Why are we always stuck and running from
       A chord diagramC majorC
The bullet?

The bullets
A chord diagramFF
If we never learn we been here before
A chord diagramDmDm
Why are we always stuck and running from
       A chord diagramC majorC
The bullet?

The bullets


Bridge:
A chord diagramFF
 We don't talk enough
A chord diagramDmDm
  We should open up
A chord diagramC majorC                        A chord diagramBb majorBb
 Before it's all too much
A chord diagramFF
 Will we ever learn?
A chord diagramDmDm
 We've been here before
A chord diagramC majorC                       A chord diagramBb majorBb
 It's just what we know


Outro:
A chord diagramFF
Stop your crying, baby
                   A chord diagramDmDm
It’s a sign of the times
             A chord diagramC majorC
We gotta get away
               A chord diagramBb majorBb
We got to get away
               A chord diagramFF
We got to get away
               A chord diagramDmDm
We got to get away
               A chord diagramC majorC
We got to get away

We got to! We got to!
A chord diagramFF
Away!

We got to! We got to!
A chord diagramDmDm
Away!

We got to! We got to!
A chord diagramC majorC
Away!
A chord diagramBb majorBb
A chord diagramFF
            A chord diagramFF
e|------1///13~---|
B|------1///13~---|
G|------2///14~---|
D|----------------|
A|----------------|
E|----------------|

 End:
  A chord diagramFF     let ring
e|13------------------------------------------------------------------------------|
B|13-13-15----13-15----13-15----13-15----13-15----13-15----13-15----13-15----13---|
G|14-------14-------14-------14-------14-------14-------14-------14-------14------|
D|15------------------------------------------------------------------------------|
A|--------------------------------------------------------------------------------|
E|13------------------------------------------------------------------------------|


***********************************
| /   Slide up
| \   Slide down
| ~   Vibrato
| b   Bend
| r   Bend release

Other versions of Sign Of The Times

Sign of the timesChords
Sign of the times (Ver. 3)Chords
Sign of the times (Ver. 4)Chords
Sign of the timesTabs

↓ Add and view comments below ↓

What do you think about this song and these chords?

Add your comments, questions, rant or a thumbs up below.

Almost there ...

Sign in to get your own page with links to favourite songs and more. You are just one click away...

Login with Facebook Login with Google