Log in

One click and you are in

Login with Facebook Login with Google

Why sign up and log in

Guitar Tabs Explorer
Harry Styles guitar chords for She (Ver. 2)

Guitar chords with lyrics

Tuning: Standard (E A D G B E)

Harry Styles
"She"

Standard tuning.
  A chord diagramE minorEm    A chord diagramDm6Dm6   A chord diagramCmaj7Cmaj7 A chord diagramAm7Am7  B7#9b13 A chord diagramDm7Dm7   Dm7/G A chord diagramB7#9B7#9   A chord diagramDmDm
e|0-----1-----0-----0-----3------1------------------1-----|
B|0-----0-----0-----1-----3------1-----1-----3------3-----|
G|0-----2-----0-----0-----2------2-----2-----2------2-----|
D|2-----0-----2-----2-----1------0-----0-----1------0-----|
A|2-----------3-----0-----2------------------2------------|
E|0------------------------------------3------------------|


Intro:
A chord diagramE minorEm      A chord diagramDm6Dm6
A chord diagramCmaj7Cmaj7   A chord diagramAm7Am7 B7#9b13


Verse 1:
A chord diagramE minorEm                                               A chord diagramDm7Dm7    Dm7/G
Nine in the morning, a man drops his kids off at school
                     A chord diagramCmaj7Cmaj7               A chord diagramAm7Am7  A chord diagramB7#9B7#9
And he's thinking of you, like all of us do
A chord diagramE minorEm                                         A chord diagramDmDm
Sends his assistant for coffee in the afternoon
          A chord diagramCmaj7Cmaj7                    A chord diagramAm7Am7  A chord diagramB7#9B7#9
Around 1:32, like he knows what to do

Chorus:
A chord diagramE minor 7Em7                                    A chord diagramDmDm
She (She), she lives in daydreams with me (She)
                           A chord diagramCmaj7Cmaj7
She's the first one that I see, and I don't know why
                     A chord diagramAm7Am7    B7#9b13
I don't know who she is (She, she)


Break:
A chord diagramE minorEm
A chord diagramAm7Am7  A chord diagramB7#9B7#9


Verse 2:
A chord diagramE minorEm                                         A chord diagramDm7Dm7
He takes a boat out, imagines just sailing away (Away, away)
                    A chord diagramCmaj7Cmaj7
And not telling his mates (Not telling his mates)
                      A chord diagramAm7Am7                        A chord diagramB7#9B7#9
Wouldn't know what to say (Wouldn't know what to say, to say)


Chorus:
A chord diagramE minorEm                                     A chord diagramDmDm
She (She), she lives in daydreams with me (She)
                           A chord diagramCmaj7Cmaj7
She's the first one that I see, and I don't know why
                     A chord diagramAm7Am7     B7#9b13
I don't know who she is (She)
A chord diagramE minorEm                                    A chord diagramDmDm
She (She), she's the first one that I see (She)
                            A chord diagramCmaj7Cmaj7
She lives in daydreams with me, and I don't know why
                       A chord diagramAm7Am7     B7#9b13
I don't know where she is (She, she)


Bridge:
A chord diagramE minorEm
Lives for the memory
                          A chord diagramDmDm
A chord diagramA majorA woman who's just in his head (Just in his head)
                      A chord diagramCmaj7Cmaj7
And she sleeps in his bed (His bed)
                  A chord diagramAm7Am7
While he plays pretend (Pretend)
      A chord diagramB7#9B7#9
So pretend (Pretend)


Chorus:
A chord diagramE minorEm                                     A chord diagramDmDm
She (She), she lives in daydreams with me (She)
                           A chord diagramCmaj7Cmaj7
She's the first one that I see, and I don't know why
                     A chord diagramAm7Am7    B7#9b13
I don't know who she is (She, she)
A chord diagramE minor 7Em7                                   A chord diagramDmDm
She (She), she's the first one that I see (She)
                            A chord diagramCmaj7Cmaj7
She lives in daydreams with me, and I don't know why
                       A chord diagramAm7Am7    B7#9b13
I don't know where she is (She, she)


Outro:
A chord diagramE minorEm     A chord diagramDmDm
A chord diagramCmaj7Cmaj7  A chord diagramAm7Am7 B7#9b13
A chord diagramE minorEm     A chord diagramDmDm
A chord diagramCmaj7Cmaj7  A chord diagramAm7Am7 B7#9b13
A chord diagramE minorEm     A chord diagramDmDm
A chord diagramCmaj7Cmaj7  A chord diagramAm7Am7 B7#9b13
A chord diagramE minorEm     A chord diagramDmDm
A chord diagramCmaj7Cmaj7  A chord diagramAm7Am7 B7#9b13
A chord diagramE minorEm     A chord diagramDmDm
A chord diagramCmaj7Cmaj7  A chord diagramAm7Am7 B7#9b13
A chord diagramE minorEm     A chord diagramDm7Dm7
A chord diagramCmaj7Cmaj7  A chord diagramAm7Am7 B7#9b13
A chord diagramE minorEm     A chord diagramDm7Dm7
A chord diagramCmaj7Cmaj7  A chord diagramAm7Am7 B7#9b13


Lead Guitar Parts:


Bridge: w/ triplet delay
  A chord diagramE minorEm              A chord diagramDm7Dm7             A chord diagramCmaj7Cmaj7           A chord diagramAm7Am7       A chord diagramB7#9B7#9
e|-------------------------------------------------------------------|
B|12--12--12--12--10--10--10--10----------10--10--12-----------------|
G|--------------------------------12--12--------------------7/12-----|
D|-------------------------------------------------------------------|
A|-------------------------------------------------------------------|
E|-------------------------------------------------------------------|

Final Chorus: w/ octave fuzz

  A chord diagramE minorEm                         A chord diagramDm6Dm6                  A chord diagramCmaj7Cmaj7
e|-----------------------------------------------------------------------------------------|
B|---------------------------15~-----------------------------------------------------------|
G|-------------------/16-14~------14b16-----r14p12------14b16gr---14-12---12b14-----12-14--|
D|12b----14~----12-14-----------------------------14-------------------14------------------|
A|-----------------------------------------------------------------------------------------|
E|-----------------------------------------------------------------------------------------|

  A chord diagramAm7Am7                   B7#9b13
e|--------------------------------------------|
B|----------15--------------------------------|
G|14gb16-------12-14------14b16-14b16-14b16---|
D|--------------------------------------------|
A|--------------------------------------------|
E|--------------------------------------------|

  A chord diagramE minorEm                        A chord diagramDm6Dm6                      A chord diagramCmaj7Cmaj7
e|----------------------------------------------------------------------------------------|
B|----------------------------15b17-15----------------------------------------------------|
G|-------------------/16-14~-----------14b16---14--12--14b16--14~--14-12---12b14---12-14--|
D|12b----14~----12-14---------------------------------------------------14----------------|
A|----------------------------------------------------------------------------------------|
E|----------------------------------------------------------------------------------------|

  A chord diagramAm7Am7                   B7#9b13
e|------------------------------------------------|
B|-----------15-----------------------------------|
G|14gb16--------12-14-----14b16-14b16-14b16r14-12-|
D|------------------------------------------------|
A|------------------------------------------------|
E|------------------------------------------------|


Outro: w/ octave fuzz
  A chord diagramE minorEm                        A chord diagramDmDm                  A chord diagramCmaj7Cmaj7
e|----------------------------------------------------------------------|
B|--------------------------15~-----------------------------------------|
G|-----------------/16-14~-------14b16------------12b14--12---14-12-14--|
D|12b----14~--12-14---------------------14b16-14------------------------|
A|----------------------------------------------------------------------|
E|----------------------------------------------------------------------|

  A chord diagramAm7Am7                    B7#9b13
e|--------------------------------------------------------|
B|--------------------------------------------------------|
G|12gb--12-14-12-----------14b16-14b16-14b16-14b16-14-----|
D|--------------------------------------------------------|
A|--------------------------------------------------------|
E|--------------------------------------------------------|

 A chord diagramE minorEm                         A chord diagramDmDm
e|-----------------------------------------------------------------|
B|--------------------------15~-17p15--15--17-15--17-15--17-15--17-|
G|-----------------/16-14--~---------16----------------------------|
D|12b----14~--12-14------------------------------------------------|
A|-----------------------------------------------------------------|
E|-----------------------------------------------------------------|

  A chord diagramCmaj7Cmaj7
e|-----------------------------------------------------------------------------|
B|17b19-17--15--17-15----15----------------------------------------------------|
G|--------------------16----16-14-16-14\12-14-12-14-12-14-16-14-12----12-14-12-|
D|-----------------------------------------------------------------14----------|
A|-----------------------------------------------------------------------------|
E|-----------------------------------------------------------------------------|

  A chord diagramAm7Am7                 B7#9b13
e|-----------------------------------------|
B|-----------------------------------------|
G|14gb16---14-12-14-----14b16-14b16-14b16-r|
D|-----------------------------------------|
A|-----------------------------------------|
E|-----------------------------------------|

  A chord diagramE minorEm
e|-------------------------------------------------------------|
B|-------------------------------------------------------------|
G|-------------------------------------------------------------|
D|12b----14~-14p12----12---------------------------------------|
A|-----------------14----14-12\10-12-10----10-12-10-12-10-12---|
E|--------------------------------------12---------------------|

  A chord diagramDmDm
e|-------------------------------------------------------------------|
B|-------------------------------------------------------------------|
G|-------------------------------------------------------------------|
D|12b----14~-14p12----12---------------------------------------------|
A|-----------------14----14-12\10-12-10----10-12b13r12-10-12-10------|
E|--------------------------------------12----------------------12---|

  A chord diagramAm7Am7                                               B7#9b13
e|----------------------------------------------------------------------------------|
B|----------------------------------------------------------------------------------|
G|----------12-14-14-14-14-14-14-14-12-14-14-14-12-14-12-14-12-14b16-14b16-16r14p12-|
D|12b----14-------------------------------------------------------------------------|
A|----------------------------------------------------------------------------------|
E|----------------------------------------------------------------------------------|

  A chord diagramE minorEm                         A chord diagramDmDm
e|-------------------------------------------------|
B|-------------------------------------------------|
G|-------------------------------------------------|
D|14~--14~--14~--14-12-------14~-14~-14~-14b16--gr-|
A|---------------------14--------------------------|
E|------------------------15-----------------------|

  A chord diagramCmaj7Cmaj7
e|------------------------------------------------------------------|
B|------------------------------------------------------------------|
G|------------------------------------------------------------------|
D|12----------14-14~--14p12---14-----12--14-12--14-14~--14p12-12-14-|
A|-------------------------14-----14--------------------------------|
E|---15p12~---------------------------------------------------------|

  A chord diagramAm7Am7                                B7#9b13
e|---------------------------------------------------------------|
B|---------------------------------------------------------------|
G|12-12-12/14-14--12-12--14-12--14-----14b16-14b16---14b16-14b16-|
D|---------------------------------------------------------------|
A|---------------------------------------------------------------|
E|---------------------------------------------------------------|

  A chord diagramE minorEm                                      A chord diagramDmDm
e|-----------------------------------------------------------------------------------------------------------|
B|-----------------------------------------------------------------------------------------------------------|
G|14b16-----14b16r14-12-14-12-------------14b16-14b16---16r14p12-14p12---12--14-14b16-14--12h14--12--12--12~-|
D|-----------------------------14-14-14-------------------------------14-------------------------------------|
A|-----------------------------------------------------------------------------------------------------------|
E|-----------------------------------------------------------------------------------------------------------|

  A chord diagramCmaj7Cmaj7           A chord diagramAm7Am7               B7#9b13
e|---------------------------------------------------|
B|---------------------------------------------------|
G|12~~~~~~~---12--12h14------------------------------|
D|-----------------------14---14------14-14-14-12-14-|
A|---------------------------------------------------|
E|---------------------------------------------------|

  w/ delay
  A chord diagramE minorEm               A chord diagramDm7Dm7             A chord diagramCmaj7Cmaj7       A chord diagramAm7Am7   B7#9b13
e|---------------------------------------15~--------------------------|
B|--------------------------------------------------------------------|
G|--------------------------------------------------------------------|
D|14~~~~~~~~~~~~~~~~~~~~~---------------------------------------------|
A|--------------------------------------------------------------------|
E|------------------------------------------------------10-\-7/8\7----|
                                         <
  A chord diagramE minorEm               A chord diagramDm7Dm7             A chord diagramCmaj7Cmaj7       A chord diagramAm7Am7     B7#9b13
e|--------------------------------------------------------------|
B|12\------------------------10h12------------------------------|
G|--------------------------------------------------------------|
D|9\------------------------------------------------------------|
A|--------------------------------------------------------------|
E|--------------------------------------------------------------|


***********************************

| /   Slide up
| \   Slide down
| h   Hammer-on
| p   Pull-off
| ~   Vibrato
| x   Dead note
| b   Bend
| gb  Gradual bend
| r   Bend release
| gr  Gradual bend release
| <   Volume swell

***********************************

Other versions of She

SheChords
She ukuleleChords

↓ Add and view comments below ↓

What do you think about this song and these chords?

Add your comments, questions, rant or a thumbs up below.

Almost there ...

Sign in to get your own page with links to favourite songs and more. You are just one click away...

Login with Facebook Login with Google