Log in

One click and you are in

Login with Facebook Login with Google

Why sign up and log in

Guitar Tabs Explorer
Harry Styles guitar tabs for Medicine

Guitar tabs with lyrics

  • Capo on 2nd
Tuning: Standard (E A D G B E)

Difficulty: Novice

A chord diagramE minorEm |022000|
A chord diagramA majorA  |355433|
A chord diagramG MajorG  |577655|
A chord diagramBB  |799855|


Intro:

e|---------0------------------------0----------------------------------------|
B|------------------------------------3p0------------------------------------|
G|-------------------2--0----------------2p0---------------------------------|
D|-------------------------------------------0-------------------------------|
A|---------------------------------------------------------------------------|
E|--0--0--0---0--0---0--3---0--0--0------------------------------------------|

e|---------0------------------------0---x------------------------------------|
B|--------------------------------------x------------------------------------|
G|-------------------2--0---------------x------------------------------------|
D|--------------------------------------2------------------------------------|
A|--------------------------------------2------------------------------------|
E|--0--0--0---0--0---0--3---0--0--0-----x------------------------------------|


Verse 1:

e|----------0---------------------0------------------------------------------|
B|---------------------------------------------------------------------------|
G|-------------------2--0-------------------2--0-----------------------------|
D|---------------------------------------------------------------------------|
A|---------------------------------------------------------------------------|    x 3 (First 3 lines of verse)
E|--0--0--0---0--0---0--3--0--0--0---0--0---0--3-----------------------------|
Here to take my medicine, take my medicine, treat you likea gentleman
Give me that adrenaline, that adrenaline, think i'm gonna stick with you
Here to take my medicine, take my medicine, feel it on your finger tips - and up to

e|--------0------------------------0-----------------------------------------|
B|----------------------------------3p0--------------------------------------|
G|-------------------2--0---------------2p0----------------------------------|
D|------------------------------------------0--------------------------------|
A|---------------------------------------------------------------------------|
E|--0-0--0----0--0---0--3---0--0--0------------------------------------------|
your mouth - feeling it out, feeling it out

Pre Chorus
e|---------------------------------------------------------------------------|
B|---------------------------------------------------------------------------|
G|---------------------------------------------------------------------------|
D|---------------------------------------------------------------------------|
A|---------------------------0----------------3---2--------------------------|
E|--0------3-----------------------------------------------------------------|
Id had a few, Got drunk on you, and Now im Wast-ed
e|----------------------------------------------x-----------------------------|
B|----------------------------------------------4-----------------------------|
G|----------------------------------------------4-----------------------------|
D|----------------------------------------------4-----------------------------|
A|-------------------------------0--------------x-----------------------------|
E|---0----------3-------------------------------x-----------------------------|
   And when i sleep, Im gonna dream of how you ---

Chorus:
A chord diagramE minorEm                 A chord diagramA majorA                  A chord diagramG MajorG                           A chord diagramA majorA
     If you go out tonight, Im going out cause I, Know you're persuasive
A chord diagramE minorEm                 A chord diagramA majorA                  A chord diagramG MajorG                           A chord diagramA majorA
     You've got the salt and i've got me an appetite now i can taste it
A chord diagramE minorEm                 A chord diagramA majorA                  A chord diagramG MajorG               A chord diagramA majorA
     You got me dizzy OH, you got me dizzy Oh, La la la lala
A chord diagramE minorEm                 A chord diagramA majorA                  A chord diagramG MajorG               B*
     You got me dizzy OH, you got me Dizzy Oh.

Play A chord diagramBB as a
e|------------------------------------|
B|------- 7---------------------------|
G|-------8----------------------------|
D|------9-----------------------------|
A|-----9------------------------------|
E|------------------------------------|   *EM Chord here*

Joining tab

e|---------0------------------------0----------------------------------------|
B|------------------------------------3p0------------------------------------|
G|-------------------2--0----------------2p0---------------------------------|
D|-------------------------------------------0-------------------------------|
A|---------------------------------------------------------------------------|
E|--0--0--0---0--0---0--3---0--0--0------------------------------------------|

e|---------0------------------------0---x------------------------------------|
B|--------------------------------------x------------------------------------|
G|-------------------2--0---------------x------------------------------------|
D|--------------------------------------2------------------------------------|
A|--------------------------------------2------------------------------------|
E|--0--0--0---0--0---0--3---0--0--0-----x------------------------------------|


Verse 2:
e|----------0---------------------0------------------------------------------|
B|---------------------------------------------------------------------------|
G|-------------------2--0----------------------------------------------------|
D|---------------------------------------------------------------------------|
A|---------------------------------------------------------------------------|
E|--0--0--0---0--0---0--3--0--0--0---0--0------------------------------------|

Tingles running through my blood, fingers to my toes, tingles running through my bones

e|---x--------------------------x-------------------------x--------------0-----------|
B|---x--------------------------x-------------------------x----------------3p0-------|
G|---x--------------------------x-------------------------x--------------------2p0---|
D|---2--------------------------2-------------------------2------------------------0-|
A|---2--------------------------2-------------------------2--------------------------|
E|---x--------------------------x-------------------------x--------------------------|
The boys and girls are here, I mess around with them and im okay with it.


Pre Chorus
e|---------------------------------------------------------------------------|
B|---------------------------------------------------------------------------|
G|---------------------------------------------------------------------------|
D|---------------------------------------------------------------------------|
A|-----------------------------0--------------3---2--------------------------|
E|--0-----------3------------------------------------------------------------|
    Im Coming down, i figured out, I kinda Like-IT
e|----------------------------------------------x-----------------------------|
B|----------------------------------------------4-----------------------------|
G|----------------------------------------------4-----------------------------|
D|----------------------------------------------4-----------------------------|
A|------------------------------0---------------x-----------------------------|
E|---0----------3-------------------------------x-----------------------------|
   And when i sleep, Im gonna dream of how you ---


Chorus:


Chorus:
A chord diagramE minorEm                 A chord diagramA majorA                  A chord diagramG MajorG                           A chord diagramA majorA
     If you go out tonight, Im going out cause I, Know you're persuasive
A chord diagramE minorEm                 A chord diagramA majorA                  A chord diagramG MajorG                           A chord diagramA majorA
     You've got the salt and i've got me an appetite now i can taste it
A chord diagramE minorEm                 A chord diagramA majorA                  A chord diagramG MajorG               A chord diagramA majorA
     You got me dizzy OH, you got me dizzy Oh, La la la lala
A chord diagramE minorEm                 A chord diagramA majorA                  A chord diagramG MajorG               B*
     You got me dizzy OH, you got me Dizzy Oh.

Play A chord diagramBB as a
e|------------------------------------|
B|------- 7---------------------------|
G|-------8----------------------------|
D|------9-----------------------------|
A|-----9------------------------------|
E|------------------------------------|  *EM chord*

Interlude:

e|---------0------------------------0---x------------------------------------|
B|--------------------------------------x------------------------------------|
G|-------------------2--0---------------x------------------------------------|
D|--------------------------------------2------------------------------------|
A|--------------------------------------2------------------------------------|
E|--0--0--0---0--0---0--3---0--0--0-----x------------------------------------|

e|---------0------------------------0----------------------------------------|
B|------------------------------------3p0------------------------------------|
G|-------------------2--0----------------2p0---------------------------------|
D|-------------------------------------------0-------------------------------|
A|---------------------------------------------------------------------------|
E|--0--0--0---0--0---0--3---0--0--0------------------------------------------


Bridge:

e|---------------------------------------------------------------------------|
B|---------------------------------------------------------------------------|
G|---------------------------------------------------------------------------|
D|---------------------------------------------------------------------------|
A|-----------------------------0--------------3--2---------------------------|
E|--0--------3---------------------------------------------------------------|
   I had a few, got drunk on you, and now im Was-ted.


Pause for a few seconds.


Chorus:
A chord diagramE minorEm                 A chord diagramA majorA                  A chord diagramG MajorG                           A chord diagramA majorA
     If you go out tonight, Im going out cause I, Know you're persuasive
A chord diagramE minorEm                 A chord diagramA majorA                  A chord diagramG MajorG                           A chord diagramA majorA
     You've got the salt and i've got me an appetite now i can taste it
A chord diagramE minorEm                 A chord diagramA majorA                  A chord diagramG MajorG               A chord diagramA majorA
     You got me dizzy OH, you got me dizzy Oh, La la la lala
A chord diagramE minorEm                 A chord diagramA majorA                  A chord diagramG MajorG               B*
     You got me dizzy OH, you got me Dizzy Oh.

Play A chord diagramBB as a
e|------------------------------------|
B|------- 7---------------------------|
G|-------8----------------------------|
D|------9-----------------------------|
A|-----9------------------------------|
E|------------------------------------|  *EM chord*'


Outro:

e|---------0------------------------0----------------------------------------|
B|------------------------------------3p0------------------------------------|
G|-------------------2--0----------------2p0---------------------------------|
D|-------------------------------------------0-------------------------------|
A|---------------------------------------------------------------------------|
E|--0--0--0---0--0---0--3---0--0--0------------------------------------------|

e|---------0------------------------0---x------------------------------------|
B|--------------------------------------x------------------------------------|
G|-------------------2--0---------------x------------------------------------|
D|--------------------------------------2------------------------------------|
A|--------------------------------------2------------------------------------|
E|--0--0--0---0--0---0--3---0--0--0-----x------------------------------------|


************************************

| x   Dead note
| p   Pull-off


************************************

Other versions of Medicine

MedicineChords
Medicine (Ver. 2)Chords

↓ Add and view comments below ↓

What do you think about this song and these tabs?

Add your comments, questions, rant or a thumbs up below.

Almost there ...

Sign in to get your own page with links to favourite songs and more. You are just one click away...

Login with Facebook Login with Google